  0
SECTION
  2
HEADER
  9
$ACADVER
  1
AC1018
  9
$ACADMAINTVER
 70
     0
  9
$DWGCODEPAGE
  3
ANSI_1252
  9
$INSBASE
 10
0.0
 20
0.0
 30
0.0
  9
$EXTMIN
 10
-0.5
 20
-0.5
 30
-0.5
  9
$EXTMAX
 10
5.0
 20
5.0
 30
5.0
  9
$LIMMIN
 10
-0.5
 20
-0.5
  9
$LIMMAX
 10
5.0
 20
5.0
  9
$ORTHOMODE
 70
     0
  9
$REGENMODE
 70
     1
  9
$FILLMODE
 70
     1
  9
$QTEXTMODE
 70
     0
  9
$MIRRTEXT
 70
     1
  9
$LTSCALE
 40
1.0
  9
$ATTMODE
 70
     1
  9
$TEXTSIZE
 40
0.2
  9
$TRACEWID
 40
0.05
  9
$TEXTSTYLE
  7
Standard
  9
$CLAYER
  8
0
  9
$CELTYPE
  6
ByLayer
  9
$CECOLOR
 62
   256
  9
$CELTSCALE
 40
1.0
  9
$DISPSILH
 70
     0
  9
$DIMSCALE
 40
1.0
  9
$DIMASZ
 40
0.18
  9
$DIMEXO
 40
0.0625
  9
$DIMDLI
 40
0.38
  9
$DIMRND
 40
0.0
  9
$DIMDLE
 40
0.0
  9
$DIMEXE
 40
0.18
  9
$DIMTP
 40
0.0
  9
$DIMTM
 40
0.0
  9
$DIMTXT
 40
0.18
  9
$DIMCEN
 40
0.09
  9
$DIMTSZ
 40
0.0
  9
$DIMTOL
 70
     0
  9
$DIMLIM
 70
     0
  9
$DIMTIH
 70
     1
  9
$DIMTOH
 70
     1
  9
$DIMSE1
 70
     0
  9
$DIMSE2
 70
     0
  9
$DIMTAD
 70
     0
  9
$DIMZIN
 70
     0
  9
$DIMBLK
  1

  9
$DIMASO
 70
     1
  9
$DIMSHO
 70
     1
  9
$DIMPOST
  1

  9
$DIMAPOST
  1

  9
$DIMALT
 70
     0
  9
$DIMALTD
 70
     2
  9
$DIMALTF
 40
25.4
  9
$DIMLFAC
 40
1.0
  9
$DIMTOFL
 70
     0
  9
$DIMTVP
 40
0.0
  9
$DIMTIX
 70
     0
  9
$DIMSOXD
 70
     0
  9
$DIMSAH
 70
     0
  9
$DIMBLK1
  1

  9
$DIMBLK2
  1

  9
$DIMSTYLE
  2
Standard
  9
$DIMCLRD
 70
     0
  9
$DIMCLRE
 70
     0
  9
$DIMCLRT
 70
     0
  9
$DIMTFAC
 40
1.0
  9
$DIMGAP
 40
0.09
  9
$DIMJUST
 70
     0
  9
$DIMSD1
 70
     0
  9
$DIMSD2
 70
     0
  9
$DIMTOLJ
 70
     1
  9
$DIMTZIN
 70
     0
  9
$DIMALTZ
 70
     0
  9
$DIMALTTZ
 70
     0
  9
$DIMUPT
 70
     0
  9
$DIMDEC
 70
     4
  9
$DIMTDEC
 70
     4
  9
$DIMALTU
 70
     2
  9
$DIMALTTD
 70
     2
  9
$DIMTXSTY
  7
Standard
  9
$DIMAUNIT
 70
     0
  9
$DIMADEC
 70
     0
  9
$DIMALTRND
 40
0.0
  9
$DIMAZIN
 70
     0
  9
$DIMDSEP
 70
    46
  9
$DIMATFIT
 70
     3
  9
$DIMFRAC
 70
     0
  9
$DIMLDRBLK
  1

  9
$DIMLUNIT
 70
     2
  9
$DIMLWD
 70
    -2
  9
$DIMLWE
 70
    -2
  9
$DIMTMOVE
 70
     0
  9
$LUNITS
 70
     2
  9
$LUPREC
 70
     4
  9
$SKETCHINC
 40
0.1
  9
$FILLETRAD
 40
0.5
  9
$AUNITS
 70
     0
  9
$AUPREC
 70
     0
  9
$MENU
  1
.
  9
$ELEVATION
 40
0.0
  9
$PELEVATION
 40
0.0
  9
$THICKNESS
 40
0.0
  9
$LIMCHECK
 70
     0
  9
$CHAMFERA
 40
0.0
  9
$CHAMFERB
 40
0.0
  9
$CHAMFERC
 40
0.0
  9
$CHAMFERD
 40
0.0
  9
$SKPOLY
 70
     0
  9
$TDCREATE
 40
2458075.51031706
  9
$TDUCREATE
 40
2458075.468650394
  9
$TDUPDATE
 40
2458075.51031794
  9
$TDUUPDATE
 40
2458075.468651273
  9
$TDINDWG
 40
0.0000000116
  9
$TDUSRTIMER
 40
0.0000000116
  9
$USRTIMER
 70
     1
  9
$ANGBASE
 50
0.0
  9
$ANGDIR
 70
     0
  9
$PDMODE
 70
     0
  9
$PDSIZE
 40
0.0
  9
$PLINEWID
 40
0.0
  9
$SPLFRAME
 70
     0
  9
$SPLINETYPE
 70
     6
  9
$SPLINESEGS
 70
     8
  9
$HANDSEED
  5
177
  9
$SURFTAB1
 70
     6
  9
$SURFTAB2
 70
     6
  9
$SURFTYPE
 70
     6
  9
$SURFU
 70
     6
  9
$SURFV
 70
     6
  9
$UCSBASE
  2

  9
$UCSNAME
  2

  9
$UCSORG
 10
0.0
 20
0.0
 30
0.0
  9
$UCSXDIR
 10
1.0
 20
0.0
 30
0.0
  9
$UCSYDIR
 10
0.0
 20
1.0
 30
0.0
  9
$UCSORTHOREF
  2

  9
$UCSORTHOVIEW
 70
     0
  9
$UCSORGTOP
 10
0.0
 20
0.0
 30
0.0
  9
$UCSORGBOTTOM
 10
0.0
 20
0.0
 30
0.0
  9
$UCSORGLEFT
 10
0.0
 20
0.0
 30
0.0
  9
$UCSORGRIGHT
 10
0.0
 20
0.0
 30
0.0
  9
$UCSORGFRONT
 10
0.0
 20
0.0
 30
0.0
  9
$UCSORGBACK
 10
0.0
 20
0.0
 30
0.0
  9
$PUCSBASE
  2

  9
$PUCSNAME
  2

  9
$PUCSORG
 10
0.0
 20
0.0
 30
0.0
  9
$PUCSXDIR
 10
1.0
 20
0.0
 30
0.0
  9
$PUCSYDIR
 10
0.0
 20
1.0
 30
0.0
  9
$PUCSORTHOREF
  2

  9
$PUCSORTHOVIEW
 70
     0
  9
$PUCSORGTOP
 10
0.0
 20
0.0
 30
0.0
  9
$PUCSORGBOTTOM
 10
0.0
 20
0.0
 30
0.0
  9
$PUCSORGLEFT
 10
0.0
 20
0.0
 30
0.0
  9
$PUCSORGRIGHT
 10
0.0
 20
0.0
 30
0.0
  9
$PUCSORGFRONT
 10
0.0
 20
0.0
 30
0.0
  9
$PUCSORGBACK
 10
0.0
 20
0.0
 30
0.0
  9
$USERI1
 70
     0
  9
$USERI2
 70
     0
  9
$USERI3
 70
     0
  9
$USERI4
 70
     0
  9
$USERI5
 70
     0
  9
$USERR1
 40
0.0
  9
$USERR2
 40
0.0
  9
$USERR3
 40
0.0
  9
$USERR4
 40
0.0
  9
$USERR5
 40
0.0
  9
$WORLDVIEW
 70
     1
  9
$SHADEDGE
 70
     3
  9
$SHADEDIF
 70
    70
  9
$TILEMODE
 70
     1
  9
$MAXACTVP
 70
    64
  9
$PINSBASE
 10
0.0
 20
0.0
 30
0.0
  9
$PLIMCHECK
 70
     0
  9
$PEXTMIN
 10
-0.5
 20
-0.5
 30
-0.5
  9
$PEXTMAX
 10
5.0
 20
5.0
 30
5.0
  9
$PLIMMIN
 10
-0.5
 20
-0.5
  9
$PLIMMAX
 10
5.0
 20
5.0
  9
$UNITMODE
 70
     0
  9
$VISRETAIN
 70
     1
  9
$PLINEGEN
 70
     0
  9
$PSLTSCALE
 70
     1
  9
$TREEDEPTH
 70
  3020
  9
$CMLSTYLE
  2
Standard
  9
$CMLJUST
 70
     0
  9
$CMLSCALE
 40
1.0
  9
$PROXYGRAPHICS
 70
     1
  9
$MEASUREMENT
 70
     1
  9
$CELWEIGHT
370
    18
  9
$ENDCAPS
280
     0
  9
$JOINSTYLE
280
     0
  9
$LWDISPLAY
290
     1
  9
$INSUNITS
 70
     4
  9
$HYPERLINKBASE
  1

  9
$STYLESHEET
  1

  9
$XEDIT
290
     1
  9
$CEPSNTYPE
380
     0
  9
$PSTYLEMODE
290
     1
  9
$FINGERPRINTGUID
  2
{94C88D33-9B37-41C2-9C30-18CE9E20DAC2}
  9
$VERSIONGUID
  2
{FAEB1C32-E019-11D5-929B-00C0DF256EC4}
  9
$EXTNAMES
290
     1
  9
$PSVPSCALE
 40
0.0
  9
$OLESTARTUP
290
     0
  9
$SORTENTS
280
   127
  9
$INDEXCTL
280
     0
  9
$HIDETEXT
280
     1
  9
$XCLIPFRAME
290
     0
  9
$HALOGAP
280
     0
  9
$OBSCOLOR
 70
   257
  9
$OBSLTYPE
280
     0
  9
$INTERSECTIONDISPLAY
280
     0
  9
$INTERSECTIONCOLOR
 70
   257
  9
$DIMASSOC
280
     2
  9
$PROJECTNAME
  1

  0
ENDSEC
  0
SECTION
  2
CLASSES
  0
CLASS
  1
ACDBDICTIONARYWDFLT
  2
AcDbDictionaryWithDefault
  3
ObjectDBX Classes
 90
        0
 91
        4
280
     0
281
     0
  0
CLASS
  1
VISUALSTYLE
  2
AcDbVisualStyle
  3
ObjectDBX Classes
 90
     4095
 91
        4
280
     0
281
     0
  0
CLASS
  1
MATERIAL
  2
AcDbMaterial
  3
ObjectDBX Classes
 90
     1153
 91
        4
280
     0
281
     0
  0
CLASS
  1
SCALE
  2
AcDbScale
  3
ObjectDBX Classes
 90
     1153
 91
        4
280
     0
281
     0
  0
CLASS
  1
TABLESTYLE
  2
AcDbTableStyle
  3
ObjectDBX Classes
 90
     4095
 91
        4
280
     0
281
     0
  0
CLASS
  1
MLEADERSTYLE
  2
AcDbMLeaderStyle
  3
ACDB_MLEADERSTYLE_CLASS
 90
     4095
 91
        4
280
     0
281
     0
  0
CLASS
  1
SUN
  2
AcDbSun
  3
SCENEOE
 90
     1153
 91
        4
280
     0
281
     0
  0
CLASS
  1
DICTIONARYVAR
  2
AcDbDictionaryVar
  3
ObjectDBX Classes
 90
        0
 91
        4
280
     0
281
     0
  0
CLASS
  1
CELLSTYLEMAP
  2
AcDbCellStyleMap
  3
ObjectDBX Classes
 90
     1152
 91
        4
280
     0
281
     0
  0
ENDSEC
  0
SECTION
  2
TABLES
  0
TABLE
  2
VPORT
  5
8
102
{ACAD_XDICTIONARY
360
130
102
}
330
0
100
AcDbSymbolTable
 70
    16
  0
VPORT
  5
29
330
8
100
AcDbSymbolTableRecord
100
AcDbViewportTableRecord
  2
*Active
 70
     0
 10
0.0
 20
0.0
 11
1.0
 21
1.0
 12
187.088541
 22
143.325664
 13
0.0
 23
0.0
 14
0.5
 24
0.5
 15
0.5
 25
0.5
 16
0.0
 26
0.0
 36
1.0
 17
0.0
 27
0.0
 37
0.0
 40
254.0
 41
0.069908
 42
50.0
 43
419.389662
 44
-419.389662
 50
0.0
 51
0.0
 71
     0
 72
   100
 73
     1
 74
     3
 75
     0
 76
     0
 77
     0
 78
     0
281
     0
 65
     1
110
0.0
120
0.0
130
0.0
111
1.0
121
0.0
131
0.0
112
0.0
122
1.0
132
0.0
 79
     0
146
0.0
  0
VPORT
  5
121
330
8
100
AcDbSymbolTableRecord
100
AcDbViewportTableRecord
  2
L1
 70
     0
 10
0.0
 20
0.0
 11
1.0
 21
1.0
 12
187.088541
 22
143.325664
 13
0.0
 23
0.0
 14
0.5
 24
0.5
 15
0.5
 25
0.5
 16
0.0
 26
0.0
 36
1.0
 17
0.0
 27
0.0
 37
0.0
 40
254.0
 41
0.069908
 42
50.0
 43
419.389662
 44
-419.389662
 50
0.0
 51
0.0
 71
     0
 72
   100
 73
     1
 74
     3
 75
     0
 76
     0
 77
     0
 78
     0
281
     0
 65
     1
110
0.0
120
0.0
130
0.0
111
1.0
121
0.0
131
0.0
112
0.0
122
1.0
132
0.0
 79
     0
146
0.0
  0
VPORT
  5
122
330
8
100
AcDbSymbolTableRecord
100
AcDbViewportTableRecord
  2
L2
 70
     0
 10
0.0
 20
0.0
 11
0.5
 21
1.0
 12
0.0
 22
0.0
 13
0.0
 23
0.0
 14
0.5
 24
0.5
 15
0.5
 25
0.5
 16
0.0
 26
-1.0
 36
0.0
 17
0.0
 27
0.0
 37
0.0
 40
1500.38241
 41
0.011835
 42
50.0
 43
770.104354
 44
-770.104354
 50
0.0
 51
0.0
 71
     0
 72
   100
 73
     1
 74
     3
 75
     0
 76
     0
 77
     0
 78
     0
281
     0
 65
     1
110
0.0
120
0.0
130
0.0
111
1.0
121
0.0
131
0.0
112
0.0
122
1.0
132
0.0
 79
     0
146
0.0
  0
VPORT
  5
123
330
8
100
AcDbSymbolTableRecord
100
AcDbViewportTableRecord
  2
L2
 70
     0
 10
0.5
 20
0.0
 11
1.0
 21
1.0
 12
0.0
 22
0.0
 13
0.0
 23
0.0
 14
0.5
 24
0.5
 15
0.5
 25
0.5
 16
1.0
 26
0.0
 36
0.0
 17
0.0
 27
0.0
 37
0.0
 40
1500.38241
 41
0.011835
 42
50.0
 43
760.865195
 44
-760.865195
 50
0.0
 51
0.0
 71
     0
 72
   100
 73
     1
 74
     3
 75
     0
 76
     0
 77
     0
 78
     0
281
     0
 65
     1
110
0.0
120
0.0
130
0.0
111
1.0
121
0.0
131
0.0
112
0.0
122
1.0
132
0.0
 79
     0
146
0.0
  0
VPORT
  5
124
330
8
100
AcDbSymbolTableRecord
100
AcDbViewportTableRecord
  2
L3
 70
     0
 10
0.0
 20
0.5
 11
1.0
 21
1.0
 12
187.088541
 22
143.325664
 13
0.0
 23
0.0
 14
0.5
 24
0.5
 15
0.5
 25
0.5
 16
0.0
 26
0.0
 36
1.0
 17
0.0
 27
0.0
 37
0.0
 40
254.0
 41
0.069908
 42
50.0
 43
419.389662
 44
-419.389662
 50
0.0
 51
0.0
 71
     0
 72
   100
 73
     1
 74
     3
 75
     0
 76
     0
 77
     0
 78
     0
281
     0
 65
     1
110
0.0
120
0.0
130
0.0
111
1.0
121
0.0
131
0.0
112
0.0
122
1.0
132
0.0
 79
     0
146
0.0
  0
VPORT
  5
125
330
8
100
AcDbSymbolTableRecord
100
AcDbViewportTableRecord
  2
L3
 70
     0
 10
0.0
 20
0.0
 11
1.0
 21
0.5
 12
0.0
 22
0.0
 13
0.0
 23
0.0
 14
0.5
 24
0.5
 15
0.5
 25
0.5
 16
0.0
 26
-1.0
 36
0.0
 17
0.0
 27
0.0
 37
0.0
 40
1500.38241
 41
0.011835
 42
50.0
 43
770.104354
 44
-770.104354
 50
0.0
 51
0.0
 71
     0
 72
   100
 73
     1
 74
     3
 75
     0
 76
     0
 77
     0
 78
     0
281
     0
 65
     1
110
0.0
120
0.0
130
0.0
111
1.0
121
0.0
131
0.0
112
0.0
122
1.0
132
0.0
 79
     0
146
0.0
  0
VPORT
  5
126
330
8
100
AcDbSymbolTableRecord
100
AcDbViewportTableRecord
  2
L4
 70
     0
 10
0.0
 20
0.5
 11
0.5
 21
1.0
 12
187.088541
 22
143.325664
 13
0.0
 23
0.0
 14
0.5
 24
0.5
 15
0.5
 25
0.5
 16
0.0
 26
0.0
 36
1.0
 17
0.0
 27
0.0
 37
0.0
 40
254.0
 41
0.069908
 42
50.0
 43
419.389662
 44
-419.389662
 50
0.0
 51
0.0
 71
     0
 72
   100
 73
     1
 74
     3
 75
     0
 76
     0
 77
     0
 78
     0
281
     0
 65
     1
110
0.0
120
0.0
130
0.0
111
1.0
121
0.0
131
0.0
112
0.0
122
1.0
132
0.0
 79
     0
146
0.0
  0
VPORT
  5
127
330
8
100
AcDbSymbolTableRecord
100
AcDbViewportTableRecord
  2
L4
 70
     0
 10
0.0
 20
0.0
 11
0.5
 21
0.5
 12
0.0
 22
0.0
 13
0.0
 23
0.0
 14
0.5
 24
0.5
 15
0.5
 25
0.5
 16
0.0
 26
-1.0
 36
0.0
 17
0.0
 27
0.0
 37
0.0
 40
1500.38241
 41
0.011835
 42
50.0
 43
770.104354
 44
-770.104354
 50
0.0
 51
0.0
 71
     0
 72
   100
 73
     1
 74
     3
 75
     0
 76
     0
 77
     0
 78
     0
281
     0
 65
     1
110
0.0
120
0.0
130
0.0
111
1.0
121
0.0
131
0.0
112
0.0
122
1.0
132
0.0
 79
     0
146
0.0
  0
VPORT
  5
128
330
8
100
AcDbSymbolTableRecord
100
AcDbViewportTableRecord
  2
L4
 70
     0
 10
0.5
 20
0.0
 11
1.0
 21
0.5
 12
0.0
 22
0.0
 13
0.0
 23
0.0
 14
0.5
 24
0.5
 15
0.5
 25
0.5
 16
1.0
 26
0.0
 36
0.0
 17
0.0
 27
0.0
 37
0.0
 40
1500.38241
 41
0.011835
 42
50.0
 43
760.865195
 44
-760.865195
 50
0.0
 51
0.0
 71
     0
 72
   100
 73
     1
 74
     3
 75
     0
 76
     0
 77
     0
 78
     0
281
     0
 65
     1
110
0.0
120
0.0
130
0.0
111
1.0
121
0.0
131
0.0
112
0.0
122
1.0
132
0.0
 79
     0
146
0.0
  0
VPORT
  5
129
330
8
100
AcDbSymbolTableRecord
100
AcDbViewportTableRecord
  2
L4
 70
     0
 10
0.5
 20
0.5
 11
1.0
 21
1.0
 12
0.0
 22
0.0
 13
0.0
 23
0.0
 14
0.5
 24
0.5
 15
0.5
 25
0.5
 16
0.5773502691896258
 26
-0.5773502691896258
 36
0.5773502691896258
 17
0.0
 27
0.0
 37
0.0
 40
1470.817585
 41
0.012073
 42
50.0
 43
765.587847
 44
-765.587847
 50
0.0
 51
0.0
 71
     0
 72
   100
 73
     1
 74
     3
 75
     0
 76
     0
 77
     0
 78
     0
281
     0
 65
     1
110
0.0
120
0.0
130
0.0
111
1.0
121
0.0
131
0.0
112
0.0
122
1.0
132
0.0
 79
     0
146
0.0
  0
VPORT
  5
12A
330
8
100
AcDbSymbolTableRecord
100
AcDbViewportTableRecord
  2
L6
 70
     0
 10
0.0
 20
0.5
 11
0.333333
 21
1.0
 12
0.0
 22
0.0
 13
0.0
 23
0.0
 14
0.5
 24
0.5
 15
0.5
 25
0.5
 16
0.7188730927569433
 26
-0.5850486126764433
 36
0.3754192287502549
 17
0.0
 27
0.0
 37
0.0
 40
1552.153934
 41
0.01144
 42
50.0
 43
803.552652
 44
-803.552652
 50
0.0
 51
0.0
 71
     0
 72
   100
 73
     1
 74
     3
 75
     0
 76
     0
 77
     0
 78
     0
281
     0
 65
     1
110
0.0
120
0.0
130
0.0
111
1.0
121
0.0
131
0.0
112
0.0
122
1.0
132
0.0
 79
     0
146
0.0
  0
VPORT
  5
12B
330
8
100
AcDbSymbolTableRecord
100
AcDbViewportTableRecord
  2
L6
 70
     0
 10
0.0
 20
0.0
 11
0.333333
 21
0.5
 12
0.0
 22
0.0
 13
0.0
 23
0.0
 14
0.5
 24
0.5
 15
0.5
 25
0.5
 16
-1.0
 26
0.0
 36
0.0
 17
0.0
 27
0.0
 37
0.0
 40
1500.38241
 41
0.011835
 42
50.0
 43
760.865195
 44
-760.865195
 50
0.0
 51
0.0
 71
     0
 72
   100
 73
     1
 74
     3
 75
     0
 76
     0
 77
     0
 78
     0
281
     0
 65
     1
110
0.0
120
0.0
130
0.0
111
1.0
121
0.0
131
0.0
112
0.0
122
1.0
132
0.0
 79
     0
146
0.0
  0
VPORT
  5
12C
330
8
100
AcDbSymbolTableRecord
100
AcDbViewportTableRecord
  2
L6
 70
     0
 10
0.333333
 20
0.5
 11
0.666667
 21
1.0
 12
187.088541
 22
143.325664
 13
0.0
 23
0.0
 14
0.5
 24
0.5
 15
0.5
 25
0.5
 16
0.0
 26
0.0
 36
1.0
 17
0.0
 27
0.0
 37
0.0
 40
254.0
 41
0.069908
 42
50.0
 43
419.389662
 44
-419.389662
 50
0.0
 51
0.0
 71
     0
 72
   100
 73
     1
 74
     3
 75
     0
 76
     0
 77
     0
 78
     0
281
     0
 65
     1
110
0.0
120
0.0
130
0.0
111
1.0
121
0.0
131
0.0
112
0.0
122
1.0
132
0.0
 79
     0
146
0.0
  0
VPORT
  5
12D
330
8
100
AcDbSymbolTableRecord
100
AcDbViewportTableRecord
  2
L6
 70
     0
 10
0.333333
 20
0.0
 11
0.666667
 21
0.5
 12
0.0
 22
0.0
 13
0.0
 23
0.0
 14
0.5
 24
0.5
 15
0.5
 25
0.5
 16
0.0
 26
-1.0
 36
0.0
 17
0.0
 27
0.0
 37
0.0
 40
1500.38241
 41
0.011835
 42
50.0
 43
770.104354
 44
-770.104354
 50
0.0
 51
0.0
 71
     0
 72
   100
 73
     1
 74
     3
 75
     0
 76
     0
 77
     0
 78
     0
281
     0
 65
     1
110
0.0
120
0.0
130
0.0
111
1.0
121
0.0
131
0.0
112
0.0
122
1.0
132
0.0
 79
     0
146
0.0
  0
VPORT
  5
12E
330
8
100
AcDbSymbolTableRecord
100
AcDbViewportTableRecord
  2
L6
 70
     0
 10
0.666667
 20
0.5
 11
1.0
 21
1.0
 12
0.0
 22
0.0
 13
0.0
 23
0.0
 14
0.5
 24
0.5
 15
0.5
 25
0.5
 16
0.5773502691896258
 26
-0.5773502691896258
 36
0.5773502691896258
 17
0.0
 27
0.0
 37
0.0
 40
1470.817585
 41
0.012073
 42
50.0
 43
765.587847
 44
-765.587847
 50
0.0
 51
0.0
 71
     0
 72
   100
 73
     1
 74
     3
 75
     0
 76
     0
 77
     0
 78
     0
281
     0
 65
     1
110
0.0
120
0.0
130
0.0
111
1.0
121
0.0
131
0.0
112
0.0
122
1.0
132
0.0
 79
     0
146
0.0
  0
VPORT
  5
12F
330
8
100
AcDbSymbolTableRecord
100
AcDbViewportTableRecord
  2
L6
 70
     0
 10
0.666667
 20
0.0
 11
1.0
 21
0.5
 12
0.0
 22
0.0
 13
0.0
 23
0.0
 14
0.5
 24
0.5
 15
0.5
 25
0.5
 16
1.0
 26
0.0
 36
0.0
 17
0.0
 27
0.0
 37
0.0
 40
1500.38241
 41
0.011835
 42
50.0
 43
760.865195
 44
-760.865195
 50
0.0
 51
0.0
 71
     0
 72
   100
 73
     1
 74
     3
 75
     0
 76
     0
 77
     0
 78
     0
281
     0
 65
     1
110
0.0
120
0.0
130
0.0
111
1.0
121
0.0
131
0.0
112
0.0
122
1.0
132
0.0
 79
     0
146
0.0
  0
ENDTAB
  0
TABLE
  2
LTYPE
  5
5
330
0
100
AcDbSymbolTable
 70
     6
  0
LTYPE
  5
14
330
5
100
AcDbSymbolTableRecord
100
AcDbLinetypeTableRecord
  2
ByBlock
 70
     0
  3

 72
    65
 73
     0
 40
0.0
  0
LTYPE
  5
15
330
5
100
AcDbSymbolTableRecord
100
AcDbLinetypeTableRecord
  2
ByLayer
 70
     0
  3

 72
    65
 73
     0
 40
0.0
  0
LTYPE
  5
16
330
5
100
AcDbSymbolTableRecord
100
AcDbLinetypeTableRecord
  2
Continuous
 70
     0
  3
Solid line
 72
    65
 73
     0
 40
0.0
  0
LTYPE
  5
6E
330
5
100
AcDbSymbolTableRecord
100
AcDbLinetypeTableRecord
  2
CENTER
 70
     0
  3
____ _ ____ _ ____ _ ____
 72
    65
 73
     4
 40
47.4
 49
22.0
 74
     4
 75
     0
340
0
 46
0.0
 50
0.0
 44
0.0
 45
0.0
 49
-8.5
 74
     4
 75
     0
340
0
 46
0.0
 50
0.0
 44
0.0
 45
0.0
 49
8.5
 74
     4
 75
     0
340
0
 46
0.0
 50
0.0
 44
0.0
 45
0.0
 49
-8.5
 74
     4
 75
     0
340
0
 46
0.0
 50
0.0
 44
0.0
 45
0.0
  0
LTYPE
  5
6F
330
5
100
AcDbSymbolTableRecord
100
AcDbLinetypeTableRecord
  2
DASHDOT
 70
     0
  3
_._._._._._._._._._._._._._._._.
 72
    65
 73
     4
 40
70.0
 49
31.0
 74
     4
 75
     0
340
0
 46
0.0
 50
0.0
 44
0.0
 45
0.0
 49
-13.0
 74
     4
 75
     0
340
0
 46
0.0
 50
0.0
 44
0.0
 45
0.0
 49
13.0
 74
     4
 75
     0
340
0
 46
0.0
 50
0.0
 44
0.0
 45
0.0
 49
-13.0
 74
     4
 75
     0
340
0
 46
0.0
 50
0.0
 44
0.0
 45
0.0
  0
LTYPE
  5
70
330
5
100
AcDbSymbolTableRecord
100
AcDbLinetypeTableRecord
  2
DASHED
 70
     0
  3
__ __ __ __ __ __ __ __ __
 72
    65
 73
     2
 40
25.72
 49
12.86
 74
     4
 75
     0
340
0
 46
0.0
 50
0.0
 44
0.0
 45
0.0
 49
-12.86
 74
     4
 75
     0
340
0
 46
0.0
 50
0.0
 44
0.0
 45
0.0
  0
LTYPE
  5
71
330
5
100
AcDbSymbolTableRecord
100
AcDbLinetypeTableRecord
  2
DOT
 70
     0
  3
.........................
 72
    65
 73
     2
 40
10.0
 49
0.0
 74
     4
 75
     0
340
0
 46
0.0
 50
0.0
 44
0.0
 45
0.0
 49
-10.0
 74
     4
 75
     0
340
0
 46
0.0
 50
0.0
 44
0.0
 45
0.0
  0
LTYPE
  5
72
330
5
100
AcDbSymbolTableRecord
100
AcDbLinetypeTableRecord
  2
PHANTOM
 70
     0
  3
____ _ _ ____ _ _ _____ _ _ ____
 72
    65
 73
     6
 40
50.5
 49
18.0
 74
     4
 75
     0
340
0
 46
0.0
 50
0.0
 44
0.0
 45
0.0
 49
-6.5
 74
     4
 75
     0
340
0
 46
0.0
 50
0.0
 44
0.0
 45
0.0
 49
6.5
 74
     4
 75
     0
340
0
 46
0.0
 50
0.0
 44
0.0
 45
0.0
 49
-6.5
 74
     4
 75
     0
340
0
 46
0.0
 50
0.0
 44
0.0
 45
0.0
 49
6.5
 74
     4
 75
     0
340
0
 46
0.0
 50
0.0
 44
0.0
 45
0.0
 49
-6.5
 74
     4
 75
     0
340
0
 46
0.0
 50
0.0
 44
0.0
 45
0.0
  0
ENDTAB
  0
TABLE
  2
LAYER
  5
2
330
0
100
AcDbSymbolTable
 70
     2
  0
LAYER
  5
10
330
2
100
AcDbSymbolTableRecord
100
AcDbLayerTableRecord
  2
0
 70
     0
 62
     7
  6
Continuous
370
    -3
390
F
  0
LAYER
  5
74
330
2
100
AcDbSymbolTableRecord
100
AcDbLayerTableRecord
  2
1
 70
     0
 62
     7
420
 16777215
  6
Continuous
370
    -3
390
F
  0
ENDTAB
  0
TABLE
  2
STYLE
  5
3
330
0
100
AcDbSymbolTable
 70
     1
  0
STYLE
  5
11
330
3
100
AcDbSymbolTableRecord
100
AcDbTextStyleTableRecord
  2
Standard
 70
     0
 40
0.0
 41
1.0
 50
0.0
 71
     0
 42
0.2
  3
txt
  4

  0
ENDTAB
  0
TABLE
  2
VIEW
  5
6
330
0
100
AcDbSymbolTable
 70
     0
  0
ENDTAB
  0
TABLE
  2
UCS
  5
7
330
0
100
AcDbSymbolTable
 70
     0
  0
ENDTAB
  0
TABLE
  2
APPID
  5
9
330
0
100
AcDbSymbolTable
 70
     2
  0
APPID
  5
12
330
9
100
AcDbSymbolTableRecord
100
AcDbRegAppTableRecord
  2
ACAD
 70
     0
  0
APPID
  5
16F
330
9
100
AcDbSymbolTableRecord
100
AcDbRegAppTableRecord
  2
ACAD_MLEADERVER
 70
     0
  0
ENDTAB
  0
TABLE
  2
DIMSTYLE
  5
A
330
0
100
AcDbSymbolTable
 70
     1
100
AcDbDimStyleTable
  0
DIMSTYLE
105
27
330
A
100
AcDbSymbolTableRecord
100
AcDbDimStyleTableRecord
  2
Standard
 70
     0
178
     0
340
11
  0
ENDTAB
  0
TABLE
  2
BLOCK_RECORD
  5
1
330
0
100
AcDbSymbolTable
 70
     1
  0
BLOCK_RECORD
  5
1F
330
1
100
AcDbSymbolTableRecord
100
AcDbBlockTableRecord
  2
*Model_Space
340
22
  0
BLOCK_RECORD
  5
1B
330
1
100
AcDbSymbolTableRecord
100
AcDbBlockTableRecord
  2
*Paper_Space
340
1E
  0
BLOCK_RECORD
  5
23
330
1
100
AcDbSymbolTableRecord
100
AcDbBlockTableRecord
  2
*Paper_Space0
340
26
  0
ENDTAB
  0
ENDSEC
  0
SECTION
  2
BLOCKS
  0
BLOCK
  5
20
330
1F
100
AcDbEntity
  8
0
100
AcDbBlockBegin
  2
*Model_Space
 70
     0
 10
0.0
 20
0.0
 30
0.0
  3
*Model_Space
  1

  0
ENDBLK
  5
21
330
1F
100
AcDbEntity
  8
0
100
AcDbBlockEnd
  0
BLOCK
  5
1C
330
1B
100
AcDbEntity
 67
     1
  8
0
100
AcDbBlockBegin
  2
*Paper_Space
 70
     0
 10
0.0
 20
0.0
 30
0.0
  3
*Paper_Space
  1

  0
ENDBLK
  5
1D
330
1B
100
AcDbEntity
 67
     1
  8
0
100
AcDbBlockEnd
  0
BLOCK
  5
24
330
23
100
AcDbEntity
  8
0
100
AcDbBlockBegin
  2
*Paper_Space0
 70
     0
 10
0.0
 20
0.0
 30
0.0
  3
*Paper_Space0
  1

  0
ENDBLK
  5
25
330
23
100
AcDbEntity
  8
0
100
AcDbBlockEnd
  0
ENDSEC
  0
SECTION
  2
ENTITIES
  0
LINE
  5
73
330
1F
100
AcDbEntity
  8
1
  6
Continuous
 62
     1
370
    18
100
AcDbLine
 10
126.176937
 20
199.754755
 30
0.0
 11
126.176937
 21
199.905864
 31
0.0
  0
LINE
  5
75
330
1F
100
AcDbEntity
  8
1
  6
Continuous
 62
     1
370
    18
100
AcDbLine
 10
114.176937
 20
199.980394
 30
0.0
 11
114.176937
 21
199.754755
 31
0.0
  0
LINE
  5
76
330
1F
100
AcDbEntity
  8
1
  6
Continuous
 62
     1
370
    18
100
AcDbLine
 10
130.176937
 20
190.004755
 30
0.0
 11
130.176937
 21
198.004755
 31
0.0
  0
LINE
  5
77
330
1F
100
AcDbEntity
  8
1
  6
Continuous
 62
     1
370
    18
100
AcDbLine
 10
124.176937
 20
166.804755
 30
0.0
 11
124.176937
 21
190.004755
 31
0.0
  0
LINE
  5
78
330
1F
100
AcDbEntity
  8
1
  6
Continuous
 62
     1
370
    18
100
AcDbLine
 10
116.176937
 20
190.004755
 30
0.0
 11
116.176937
 21
166.804755
 31
0.0
  0
LINE
  5
79
330
1F
100
AcDbEntity
  8
1
  6
Continuous
 62
     1
370
    18
100
AcDbLine
 10
123.376937
 20
166.004755
 30
0.0
 11
124.176937
 21
166.804755
 31
0.0
  0
LINE
  5
7A
330
1F
100
AcDbEntity
  8
1
  6
Continuous
 62
     1
370
    18
100
AcDbLine
 10
116.176937
 20
166.804755
 30
0.0
 11
116.976937
 21
166.004755
 31
0.0
  0
LINE
  5
7B
330
1F
100
AcDbEntity
  8
1
  6
Continuous
 62
     1
370
    13
100
AcDbLine
 10
124.805143
 20
199.754755
 30
0.0
 11
126.176937
 21
199.754755
 31
0.0
  0
LINE
  5
7C
330
1F
100
AcDbEntity
  8
1
  6
Continuous
 62
     1
370
    13
100
AcDbLine
 10
119.085159
 20
199.0306
 30
0.0
 11
121.268715
 21
199.0306
 31
0.0
  0
LINE
  5
7D
330
1F
100
AcDbEntity
  8
1
  6
Continuous
 62
     1
370
    13
100
AcDbLine
 10
121.268715
 20
198.004755
 30
0.0
 11
121.268715
 21
199.0306
 31
0.0
  0
LINE
  5
7E
330
1F
100
AcDbEntity
  8
1
  6
Continuous
 62
     1
370
    13
100
AcDbLine
 10
119.085159
 20
199.0306
 30
0.0
 11
119.085159
 21
198.004755
 31
0.0
  0
LINE
  5
7F
330
1F
100
AcDbEntity
  8
1
  6
Continuous
 62
     1
370
    13
100
AcDbLine
 10
114.176937
 20
199.754755
 30
0.0
 11
115.548731
 21
199.754755
 31
0.0
  0
LINE
  5
80
330
1F
100
AcDbEntity
  8
1
  6
Continuous
 62
     1
370
    18
100
AcDbLine
 10
130.176937
 20
198.004755
 30
0.0
 11
120.176937
 21
198.004755
 31
0.0
  0
LINE
  5
81
330
1F
100
AcDbEntity
  8
1
  6
Continuous
 62
     1
370
    18
100
AcDbLine
 10
120.176937
 20
198.004755
 30
0.0
 11
110.176937
 21
198.004755
 31
0.0
  0
LINE
  5
82
330
1F
100
AcDbEntity
  8
1
  6
Continuous
 62
     1
370
    18
100
AcDbLine
 10
130.176937
 20
190.004755
 30
0.0
 11
120.176937
 21
190.004755
 31
0.0
  0
LINE
  5
83
330
1F
100
AcDbEntity
  8
1
  6
Continuous
 62
     1
370
    18
100
AcDbLine
 10
120.176937
 20
190.004755
 30
0.0
 11
110.176937
 21
190.004755
 31
0.0
  0
LINE
  5
84
330
1F
100
AcDbEntity
  8
1
  6
Continuous
 62
     1
370
    18
100
AcDbLine
 10
124.176937
 20
166.804755
 30
0.0
 11
120.176937
 21
166.804755
 31
0.0
  0
LINE
  5
85
330
1F
100
AcDbEntity
  8
1
  6
Continuous
 62
     1
370
    18
100
AcDbLine
 10
120.176937
 20
166.804755
 30
0.0
 11
116.176937
 21
166.804755
 31
0.0
  0
LINE
  5
86
330
1F
100
AcDbEntity
  8
1
  6
Continuous
 62
     1
370
    18
100
AcDbLine
 10
110.176937
 20
198.004755
 30
0.0
 11
110.176937
 21
190.004755
 31
0.0
  0
LINE
  5
87
330
1F
100
AcDbEntity
  8
1
  6
Continuous
 62
     1
370
    18
100
AcDbLine
 10
116.976937
 20
166.004755
 30
0.0
 11
120.176937
 21
166.004755
 31
0.0
  0
LINE
  5
88
330
1F
100
AcDbEntity
  8
1
  6
Continuous
 62
     1
370
    18
100
AcDbLine
 10
120.176937
 20
166.004755
 30
0.0
 11
123.376937
 21
166.004755
 31
0.0
  0
LINE
  5
89
330
1F
100
AcDbEntity
  8
1
  6
Continuous
 62
     1
370
    18
100
AcDbLine
 10
272.916415
 20
190.004755
 30
0.0
 11
272.916415
 21
198.004755
 31
0.0
  0
LINE
  5
8A
330
1F
100
AcDbEntity
  8
1
  6
Continuous
 62
     1
370
    18
100
AcDbLine
 10
252.916415
 20
198.004755
 30
0.0
 11
252.916415
 21
190.004755
 31
0.0
  0
LINE
  5
8B
330
1F
100
AcDbEntity
  8
1
  6
Continuous
 62
     1
370
    18
100
AcDbLine
 10
266.416415
 20
203.83767
 30
0.0
 11
266.416415
 21
230.504755
 31
0.0
  0
LINE
  5
8C
330
1F
100
AcDbEntity
  8
1
  6
Continuous
 62
     1
370
    18
100
AcDbLine
 10
266.916415
 20
166.804755
 30
0.0
 11
266.916415
 21
190.004755
 31
0.0
  0
LINE
  5
8D
330
1F
100
AcDbEntity
  8
1
  6
Continuous
 62
     1
370
    18
100
AcDbLine
 10
258.916415
 20
190.004755
 30
0.0
 11
258.916415
 21
166.804755
 31
0.0
  0
LINE
  5
8E
330
1F
100
AcDbEntity
  8
1
  6
Continuous
 62
     1
370
    18
100
AcDbLine
 10
266.116415
 20
166.004755
 30
0.0
 11
266.916415
 21
166.804755
 31
0.0
  0
LINE
  5
8F
330
1F
100
AcDbEntity
  8
1
  6
Continuous
 62
     1
370
    18
100
AcDbLine
 10
258.916415
 20
166.804755
 30
0.0
 11
259.716415
 21
166.004755
 31
0.0
  0
LINE
  5
90
330
1F
100
AcDbEntity
  8
1
  6
Continuous
 62
     1
370
    18
100
AcDbLine
 10
266.116415
 20
166.004755
 30
0.0
 11
259.716415
 21
166.004755
 31
0.0
  0
LINE
  5
91
330
1F
100
AcDbEntity
  8
1
  6
Continuous
 62
     1
370
    18
100
AcDbLine
 10
266.916415
 20
166.804755
 30
0.0
 11
258.916415
 21
166.804755
 31
0.0
  0
LINE
  5
92
330
1F
100
AcDbEntity
  8
1
  6
Continuous
 62
     1
370
    13
100
AcDbLine
 10
260.248282
 20
201.01998
 30
0.0
 11
259.098077
 21
199.754755
 31
0.0
  0
LINE
  5
93
330
1F
100
AcDbEntity
  8
1
  6
Continuous
 62
     1
370
    13
100
AcDbLine
 10
266.734754
 20
199.754755
 30
0.0
 11
265.584549
 21
201.01998
 31
0.0
  0
LINE
  5
94
330
1F
100
AcDbEntity
  8
1
  6
Continuous
 62
     1
370
    18
100
AcDbLine
 10
266.572987
 20
203.160297
 30
0.0
 11
268.352139
 21
199.246163
 31
0.0
  0
LINE
  5
95
330
1F
100
AcDbEntity
  8
1
  6
Continuous
 62
     1
370
    13
100
AcDbLine
 10
259.098077
 20
199.754755
 30
0.0
 11
266.734754
 21
199.754755
 31
0.0
  0
LINE
  5
96
330
1F
100
AcDbEntity
  8
1
  6
Continuous
 62
     1
370
    18
100
AcDbLine
 10
272.916415
 20
198.004755
 30
0.0
 11
252.916415
 21
198.004755
 31
0.0
  0
LINE
  5
97
330
1F
100
AcDbEntity
  8
1
  6
Continuous
 62
     1
370
    18
100
AcDbLine
 10
272.916415
 20
190.004755
 30
0.0
 11
252.916415
 21
190.004755
 31
0.0
  0
LINE
  5
98
330
1F
100
AcDbEntity
  8
1
  6
Continuous
 62
     1
370
    18
100
AcDbLine
 10
259.416415
 20
230.504755
 30
0.0
 11
259.416415
 21
203.837127
 31
0.0
  0
LINE
  5
99
330
1F
100
AcDbEntity
  8
1
  6
Continuous
 62
     1
370
    18
100
AcDbLine
 10
257.480692
 20
199.246163
 30
0.0
 11
259.259844
 21
203.160297
 31
0.0
  0
LINE
  5
9A
330
1F
100
AcDbEntity
  8
1
  6
Continuous
 62
     1
370
    18
100
AcDbLine
 10
133.760666
 20
55.146568
 30
0.0
 11
106.760666
 21
55.146568
 31
0.0
  0
LINE
  5
9B
330
1F
100
AcDbEntity
  8
1
  6
Continuous
 62
     1
370
    18
100
AcDbLine
 10
106.760666
 20
48.146568
 30
0.0
 11
133.760666
 21
48.146568
 31
0.0
  0
LINE
  5
9C
330
1F
100
AcDbEntity
  8
1
  6
Continuous
 62
     1
370
    13
100
AcDbLine
 10
119.085159
 20
58.773416
 30
0.0
 11
121.268715
 21
58.773416
 31
0.0
  0
LINE
  5
9D
330
1F
100
AcDbEntity
  8
1
  6
Continuous
 62
     1
370
    13
100
AcDbLine
 10
121.268715
 20
44.51972
 30
0.0
 11
119.085159
 21
44.51972
 31
0.0
  0
LINE
  5
9E
330
1F
100
AcDbEntity
  8
1
  6
Continuous
 62
     1
370
    13
100
AcDbLine
 10
119.085159
 20
58.773416
 30
0.0
 11
119.085159
 21
57.180275
 31
0.0
  0
LINE
  5
9F
330
1F
100
AcDbEntity
  8
1
  6
Continuous
 62
     1
370
    13
100
AcDbLine
 10
121.268715
 20
44.51972
 30
0.0
 11
121.268715
 21
46.112861
 31
0.0
  0
LINE
  5
A0
330
1F
100
AcDbEntity
  8
1
  6
Continuous
 62
     1
370
    13
100
AcDbLine
 10
121.268715
 20
58.773416
 30
0.0
 11
121.268715
 21
57.180275
 31
0.0
  0
LINE
  5
A1
330
1F
100
AcDbEntity
  8
1
  6
Continuous
 62
     1
370
    13
100
AcDbLine
 10
119.085159
 20
46.112861
 30
0.0
 11
119.085159
 21
44.51972
 31
0.0
  0
LINE
  5
A2
330
1F
100
AcDbEntity
  8
1
  6
Continuous
 62
     1
370
    13
100
AcDbLine
 10
121.742712
 20
58.758951
 30
0.0
 11
121.644087
 21
57.135039
 31
0.0
  0
LINE
  5
A3
330
1F
100
AcDbEntity
  8
1
  6
Continuous
 62
     1
370
    13
100
AcDbLine
 10
124.805143
 20
55.464906
 30
0.0
 11
126.155036
 21
56.578588
 31
0.0
  0
LINE
  5
A4
330
1F
100
AcDbEntity
  8
1
  6
Continuous
 62
     1
370
    13
100
AcDbLine
 10
118.709787
 20
46.158096
 30
0.0
 11
118.611162
 21
44.534185
 31
0.0
  0
LINE
  5
A5
330
1F
100
AcDbEntity
  8
1
  6
Continuous
 62
     1
370
    13
100
AcDbLine
 10
118.709787
 20
57.135039
 30
0.0
 11
118.611162
 21
58.758951
 31
0.0
  0
LINE
  5
A6
330
1F
100
AcDbEntity
  8
1
  6
Continuous
 62
     1
370
    13
100
AcDbLine
 10
115.548731
 20
55.464906
 30
0.0
 11
114.198838
 21
56.578588
 31
0.0
  0
LINE
  5
A7
330
1F
100
AcDbEntity
  8
1
  6
Continuous
 62
     1
370
    13
100
AcDbLine
 10
124.805143
 20
47.828229
 30
0.0
 11
126.155036
 21
46.714547
 31
0.0
  0
LINE
  5
A8
330
1F
100
AcDbEntity
  8
1
  6
Continuous
 62
     1
370
    13
100
AcDbLine
 10
121.742712
 20
44.534185
 30
0.0
 11
121.644087
 21
46.158096
 31
0.0
  0
LINE
  5
A9
330
1F
100
AcDbEntity
  8
1
  6
Continuous
 62
     1
370
    13
100
AcDbLine
 10
121.268715
 20
57.180275
 30
0.0
 11
119.085159
 21
57.180275
 31
0.0
  0
LINE
  5
AA
330
1F
100
AcDbEntity
  8
1
  6
Continuous
 62
     1
370
    13
100
AcDbLine
 10
119.085159
 20
46.112861
 30
0.0
 11
121.268715
 21
46.112861
 31
0.0
  0
LINE
  5
AB
330
1F
100
AcDbEntity
  8
1
  6
Continuous
 62
     1
370
    13
100
AcDbLine
 10
115.548731
 20
47.828229
 30
0.0
 11
114.198838
 21
46.714547
 31
0.0
  0
ARC
  5
AC
330
1F
100
AcDbEntity
  8
1
  6
Continuous
 62
     1
370
    18
100
AcDbCircle
 10
120.260666
 20
217.004755
 30
0.0
 40
17.0
100
AcDbArc
 50
294.118967
 51
0.0
  0
ARC
  5
AD
330
1F
100
AcDbEntity
  8
1
  6
Continuous
 62
     1
370
    18
100
AcDbCircle
 10
127.926937
 20
199.754755
 30
0.0
 40
1.75
100
AcDbArc
 50
180.0
 51
270.0
  0
ARC
  5
AE
330
1F
100
AcDbEntity
  8
1
  6
Continuous
 62
     1
370
    18
100
AcDbCircle
 10
112.426937
 20
199.754755
 30
0.0
 40
1.75
100
AcDbArc
 50
270.0
 51
0.0
  0
CIRCLE
  5
AF
330
1F
100
AcDbEntity
  8
1
  6
Continuous
 62
     1
370
    18
100
AcDbCircle
 10
120.260666
 20
217.004755
 30
0.0
 40
10.0
  0
ARC
  5
B0
330
1F
100
AcDbEntity
  8
1
  6
Continuous
 62
     1
370
    18
100
AcDbCircle
 10
120.260666
 20
217.004755
 30
0.0
 40
17.0
100
AcDbArc
 50
0.0
 51
245.316743
  0
ARC
  5
B1
330
1F
100
AcDbEntity
  8
1
  6
Continuous
 62
     1
370
    18
100
AcDbCircle
 10
262.916415
 20
230.504755
 30
0.0
 40
3.5
100
AcDbArc
 50
0.0
 51
180.0
  0
ARC
  5
B2
330
1F
100
AcDbEntity
  8
1
  6
Continuous
 62
     1
370
    18
100
AcDbCircle
 10
255.789567
 20
199.754755
 30
0.0
 40
1.75
100
AcDbArc
 50
270.0
 51
335.556045
  0
ARC
  5
B3
330
1F
100
AcDbEntity
  8
1
  6
Continuous
 62
     1
370
    18
100
AcDbCircle
 10
270.043264
 20
199.754755
 30
0.0
 40
1.75
100
AcDbArc
 50
204.443955
 51
270.0
  0
ARC
  5
B4
330
1F
100
AcDbEntity
  8
1
  6
Continuous
 62
     1
370
    18
100
AcDbCircle
 10
133.760666
 20
51.646568
 30
0.0
 40
3.5
100
AcDbArc
 50
270.0
 51
90.0
  0
ARC
  5
B5
330
1F
100
AcDbEntity
  8
1
  6
Continuous
 62
     1
370
    18
100
AcDbCircle
 10
106.760666
 20
51.646568
 30
0.0
 40
3.5
100
AcDbArc
 50
90.0
 51
270.0
  0
ARC
  5
B6
330
1F
100
AcDbEntity
  8
1
  6
Continuous
 62
     1
370
    13
100
AcDbCircle
 10
120.176937
 20
51.646568
 30
0.0
 40
7.75
100
AcDbArc
 50
26.846087
 51
39.523137
  0
ARC
  5
B7
330
1F
100
AcDbEntity
  8
1
  6
Continuous
 62
     1
370
    13
100
AcDbCircle
 10
120.176937
 20
51.646568
 30
0.0
 40
7.75
100
AcDbArc
 50
320.476863
 51
333.153913
  0
ARC
  5
B8
330
1F
100
AcDbEntity
  8
1
  6
Continuous
 62
     1
370
    18
100
AcDbCircle
 10
120.176937
 20
51.646568
 30
0.0
 40
10.0
100
AcDbArc
 50
270.0
 51
339.513749
  0
ARC
  5
B9
330
1F
100
AcDbEntity
  8
1
  6
Continuous
 62
     1
370
    18
100
AcDbCircle
 10
120.176937
 20
51.646568
 30
0.0
 40
10.0
100
AcDbArc
 50
20.491875
 51
159.508126
  0
ARC
  5
BA
330
1F
100
AcDbEntity
  8
1
  6
Continuous
 62
     1
370
    18
100
AcDbCircle
 10
120.176937
 20
51.646568
 30
0.0
 40
10.0
100
AcDbArc
 50
200.486251
 51
270.0
  0
ARC
  5
BB
330
1F
100
AcDbEntity
  8
1
  6
Continuous
 62
     1
370
    13
100
AcDbCircle
 10
120.176937
 20
51.646568
 30
0.0
 40
7.75
100
AcDbArc
 50
206.846087
 51
219.523137
  0
ARC
  5
BC
330
1F
100
AcDbEntity
  8
1
  6
Continuous
 62
     1
370
    13
100
AcDbCircle
 10
120.176937
 20
51.646568
 30
0.0
 40
7.75
100
AcDbArc
 50
140.476863
 51
153.153913
  0
ARC
  5
BD
330
1F
100
AcDbEntity
  8
1
  6
Continuous
 62
     1
370
    18
100
AcDbCircle
 10
120.176937
 20
51.646568
 30
0.0
 40
6.00000000001975
100
AcDbArc
 50
35.685303
 51
39.523137
  0
ARC
  5
BE
330
1F
100
AcDbEntity
  8
1
  6
Continuous
 62
     1
370
    18
100
AcDbCircle
 10
120.176937
 20
51.646568
 30
0.0
 40
5.999999999956521
100
AcDbArc
 50
215.685217
 51
219.523137
  0
ARC
  5
BF
330
1F
100
AcDbEntity
  8
1
  6
Continuous
 62
     1
370
    13
100
AcDbCircle
 10
120.176937
 20
54.377667
 30
0.0
 40
2.999999999999793
100
AcDbArc
 50
17.958032
 51
64.361406
  0
ARC
  5
C0
330
1F
100
AcDbEntity
  8
1
  6
Continuous
 62
     1
370
    13
100
AcDbCircle
 10
120.176937
 20
48.915468
 30
0.0
 40
2.999999999999978
100
AcDbArc
 50
197.968298
 51
244.361406
  0
ARC
  5
C1
330
1F
100
AcDbEntity
  8
1
  6
Continuous
 62
     1
370
    13
100
AcDbCircle
 10
120.176937
 20
54.377667
 30
0.0
 40
2.999999999999562
100
AcDbArc
 50
115.638594
 51
162.031702
  0
ARC
  5
C2
330
1F
100
AcDbEntity
  8
1
  6
Continuous
 62
     1
370
    18
100
AcDbCircle
 10
120.176937
 20
51.646568
 30
0.0
 40
5.999999999974624
100
AcDbArc
 50
140.476863
 51
144.314783
  0
ARC
  5
C3
330
1F
100
AcDbEntity
  8
1
  6
Continuous
 62
     1
370
    13
100
AcDbCircle
 10
120.176937
 20
48.915468
 30
0.0
 40
3.000000000000387
100
AcDbArc
 50
295.638594
 51
342.041968
  0
ARC
  5
C4
330
1F
100
AcDbEntity
  8
1
  6
Continuous
 62
     1
370
    18
100
AcDbCircle
 10
120.176937
 20
51.646568
 30
0.0
 40
5.999999999958632
100
AcDbArc
 50
320.476863
 51
324.314697
  0
ELLIPSE
  5
C5
330
1F
100
AcDbEntity
  8
1
  6
Continuous
 62
     1
370
    13
100
AcDbEllipse
 10
118.878858
 20
198.004755
 30
0.0
 11
-2.178180489548239
 21
-2.06289353941288
 31
0.0
210
0.0
220
0.0
230
1.0
 40
0.313401
 41
4.423858449814372
 42
4.498338901513074
  0
ELLIPSE
  5
C6
330
1F
100
AcDbEntity
  8
1
  6
Continuous
 62
     1
370
    13
100
AcDbEllipse
 10
121.475016
 20
198.004755
 30
0.0
 11
-2.17818048954824
 21
2.062893539412879
 31
0.0
210
0.0
220
0.0
230
1.0
 40
0.313401
 41
4.926439059256177
 42
5.000919510955008
  0
ELLIPSE
  5
C7
330
1F
100
AcDbEntity
  8
1
  6
Continuous
 62
     1
370
    13
100
AcDbEllipse
 10
118.611162
 20
199.754755
 30
0.0
 11
0.0
 21
-1.75
 31
0.0
210
0.0
220
0.0
230
1.0
 40
0.060621
 41
0.0
 42
1.193486294435298
  0
ELLIPSE
  5
C8
330
1F
100
AcDbEntity
  8
1
  6
Continuous
 62
     1
370
    13
100
AcDbEllipse
 10
126.155036
 20
199.754755
 30
0.0
 11
0.0
 21
1.75
 31
0.0
210
0.0
220
0.0
230
1.0
 40
0.771368
 41
1.570796326794897
 42
3.141592653589793
  0
ELLIPSE
  5
C9
330
1F
100
AcDbEntity
  8
1
  6
Continuous
 62
     1
370
    13
100
AcDbEllipse
 10
121.742712
 20
199.754755
 30
0.0
 11
0.0
 21
1.75
 31
0.0
210
0.0
220
0.0
230
1.0
 40
0.060621
 41
1.948106359154643
 42
3.141592653589793
  0
ELLIPSE
  5
CA
330
1F
100
AcDbEntity
  8
1
  6
Continuous
 62
     1
370
    13
100
AcDbEllipse
 10
114.198838
 20
199.754755
 30
0.0
 11
0.0
 21
-1.75
 31
0.0
210
0.0
220
0.0
230
1.0
 40
0.771368
 41
0.0
 42
1.570796326794895
  0
ELLIPSE
  5
CB
330
1F
100
AcDbEntity
  8
1
  6
Continuous
 62
     1
370
    13
100
AcDbEllipse
 10
113.235378
 20
201.01998
 30
0.0
 11
-1.4484973019572
 21
0.9820160722832976
 31
0.0
210
0.0
220
0.0
230
1.0
 40
0.748947
 41
3.877279526330403
 42
4.849124007404827
  0
ELLIPSE
  5
CC
330
1F
100
AcDbEntity
  8
1
  6
Continuous
 62
     1
370
    13
100
AcDbEllipse
 10
117.323255
 20
203.884452
 30
0.0
 11
0.008998138715203033
 21
-1.749976866561288
 31
0.0
210
0.0
220
0.0
230
1.0
 40
0.002337
 41
4.722581770837231
 42
5.13901046483436
  0
ELLIPSE
  5
CD
330
1F
100
AcDbEntity
  8
1
  6
Continuous
 62
     1
370
    13
100
AcDbEllipse
 10
123.030785
 20
203.885577
 30
0.0
 11
-0.01441378194492202
 21
-1.749940639818975
 31
0.0
210
0.0
220
0.0
230
1.0
 40
0.003744
 41
1.144184251842826
 42
1.553762777087615
  0
ELLIPSE
  5
CE
330
1F
100
AcDbEntity
  8
1
  6
Continuous
 62
     1
370
    13
100
AcDbEllipse
 10
127.095728
 20
200.981245
 30
0.0
 11
-1.453715167498674
 21
-0.9742752238378551
 31
0.0
210
0.0
220
0.0
230
1.0
 40
0.740887
 41
4.572926722443729
 42
5.547841427307439
  0
ELLIPSE
  5
CF
330
1F
100
AcDbEntity
  8
1
  6
Continuous
 62
     1
370
    13
100
AcDbEllipse
 10
120.176937
 20
205.196336
 30
0.0
 11
7.731605406244921E-15
 21
6.600000000000223
 31
0.0
210
0.0
220
0.0
230
1.0
 40
0.454545
 41
3.589070527636526
 42
4.398962196405524
  0
ELLIPSE
  5
D0
330
1F
100
AcDbEntity
  8
1
  6
Continuous
 62
     1
370
    13
100
AcDbEllipse
 10
120.176937
 20
203.954927
 30
0.0
 11
7.731605406162250E-15
 21
6.599999999929652
 31
0.0
210
0.0
220
0.0
230
1.0
 40
0.909091
 41
4.022580113452414
 42
4.244998862340505
  0
ELLIPSE
  5
D1
330
1F
100
AcDbEntity
  8
1
  6
Continuous
 62
     1
370
    13
100
AcDbEllipse
 10
120.176937
 20
203.954927
 30
0.0
 11
7.731605406159819E-15
 21
6.599999999927577
 31
0.0
210
0.0
220
0.0
230
1.0
 40
0.909091
 41
2.031623209457386
 42
2.260605193727177
  0
ELLIPSE
  5
D2
330
1F
100
AcDbEntity
  8
1
  6
Continuous
 62
     1
370
    13
100
AcDbEllipse
 10
120.176937
 20
205.196336
 30
0.0
 11
7.731605406244696E-15
 21
6.600000000000031
 31
0.0
210
0.0
220
0.0
230
1.0
 40
0.454545
 41
1.884402290313711
 42
2.69411477954308
  0
ELLIPSE
  5
D3
330
1F
100
AcDbEntity
  8
1
  6
Continuous
 62
     1
370
    13
100
AcDbEllipse
 10
265.621039
 20
198.004755
 30
0.0
 11
-2.731099432387814
 21
-1.241408832903553
 31
0.0
210
0.0
220
0.0
230
1.0
 40
0.652989
 41
3.067112201891089
 42
3.141592653589793
  0
ELLIPSE
  5
D4
330
1F
100
AcDbEntity
  8
1
  6
Continuous
 62
     1
370
    13
100
AcDbEllipse
 10
260.211792
 20
198.004755
 30
0.0
 11
-2.731099432387815
 21
1.241408832903552
 31
0.0
210
0.0
220
0.0
230
1.0
 40
0.652989
 41
0.0
 42
0.0744804516968951
  0
ELLIPSE
  5
D5
330
1F
100
AcDbEntity
  8
1
  6
Continuous
 62
     1
370
    13
100
AcDbEllipse
 10
270.028798
 20
199.754755
 30
0.0
 11
0.0
 21
-1.75
 31
0.0
210
0.0
220
0.0
230
1.0
 40
0.998161
 41
5.089699012744289
 42
6.283185307179586
  0
ELLIPSE
  5
D6
330
1F
100
AcDbEntity
  8
1
  6
Continuous
 62
     1
370
    13
100
AcDbEllipse
 10
255.804033
 20
199.754755
 30
0.0
 11
0.0
 21
-1.75
 31
0.0
210
0.0
220
0.0
230
1.0
 40
0.998161
 41
0.0
 42
1.193486294433841
  0
ELLIPSE
  5
D7
330
1F
100
AcDbEntity
  8
1
  6
Continuous
 62
     1
370
    13
100
AcDbEllipse
 10
257.984395
 20
199.754755
 30
0.0
 11
0.0
 21
-1.75
 31
0.0
210
0.0
220
0.0
230
1.0
 40
0.63639
 41
0.0
 42
1.570796326794898
  0
ELLIPSE
  5
D8
330
1F
100
AcDbEntity
  8
1
  6
Continuous
 62
     1
370
    18
100
AcDbEllipse
 10
257.666702
 20
203.884452
 30
0.0
 11
1.593141335559548
 21
-0.7241551525270942
 31
0.0
210
0.0
220
0.0
230
1.0
 40
0.999984
 41
0.0
 42
0.4164286939971668
  0
ELLIPSE
  5
D9
330
1F
100
AcDbEntity
  8
1
  6
Continuous
 62
     1
370
    18
100
AcDbEllipse
 10
268.166128
 20
203.884452
 30
0.0
 11
1.593141335565959
 21
0.7241551525129913
 31
0.0
210
0.0
220
0.0
230
1.0
 40
0.999984
 41
2.725163959601471
 42
3.141592653598622
  0
ELLIPSE
  5
DA
330
1F
100
AcDbEntity
  8
1
  6
Continuous
 62
     1
370
    13
100
AcDbEllipse
 10
266.362754
 20
201.01998
 30
0.0
 11
-1.033954452714911
 21
1.411891706084786
 31
0.0
210
0.0
220
0.0
230
1.0
 40
0.371836
 41
0.333095079732226
 42
1.304939560806651
  0
ELLIPSE
  5
DB
330
1F
100
AcDbEntity
  8
1
  6
Continuous
 62
     1
370
    13
100
AcDbEllipse
 10
259.470077
 20
201.01998
 30
0.0
 11
1.033954452714911
 21
1.411891706084786
 31
0.0
210
0.0
220
0.0
230
1.0
 40
0.371836
 41
4.978245746372937
 42
5.950090227447361
  0
ELLIPSE
  5
DC
330
1F
100
AcDbEntity
  8
1
  6
Continuous
 62
     1
370
    13
100
AcDbEllipse
 10
267.848436
 20
199.754755
 30
0.0
 11
0.0
 21
-1.75
 31
0.0
210
0.0
220
0.0
230
1.0
 40
0.63639
 41
4.712388980384691
 42
6.283185307179586
  0
ELLIPSE
  5
DD
330
1F
100
AcDbEntity
  8
1
  6
Continuous
 62
     1
370
    13
100
AcDbEllipse
 10
121.475016
 20
48.941944
 30
0.0
 11
-1.298079336238358
 21
2.704623825383298
 31
0.0
210
0.0
220
0.0
230
1.0
 40
0.689482
 41
2.533489098648728
 42
2.60796955034756
  0
ELLIPSE
  5
DE
330
1F
100
AcDbEntity
  8
1
  6
Continuous
 62
     1
370
    13
100
AcDbEllipse
 10
121.475016
 20
54.351192
 30
0.0
 11
1.298079336238357
 21
2.704623825383299
 31
0.0
210
0.0
220
0.0
230
1.0
 40
0.689482
 41
0.5336231032423608
 42
0.6081035549410638
  0
ELLIPSE
  5
DF
330
1F
100
AcDbEntity
  8
1
  6
Continuous
 62
     1
370
    13
100
AcDbEllipse
 10
118.878858
 20
54.351192
 30
0.0
 11
1.298079336237864
 21
-2.704623825383536
 31
0.0
210
0.0
220
0.0
230
1.0
 40
0.689482
 41
2.533489098648855
 42
2.60796955034575
  0
ELLIPSE
  5
E0
330
1F
100
AcDbEntity
  8
1
  6
Continuous
 62
     1
370
    13
100
AcDbEllipse
 10
118.878858
 20
48.941944
 30
0.0
 11
-1.298079336238358
 21
-2.704623825383298
 31
0.0
210
0.0
220
0.0
230
1.0
 40
0.689482
 41
0.5336231032423613
 42
0.6081035549410647
  0
ELLIPSE
  5
E1
330
1F
100
AcDbEntity
  8
1
  6
Continuous
 62
     1
370
    13
100
AcDbEllipse
 10
117.323255
 20
56.896281
 30
0.0
 11
-0.004090105948780533
 21
-1.749995220288709
 31
0.0
210
0.0
220
0.0
230
1.0
 40
0.005142
 41
0.0102048078699327
 42
0.4266335018670566
  0
ELLIPSE
  5
E2
330
1F
100
AcDbEntity
  8
1
  6
Continuous
 62
     1
370
    13
100
AcDbEllipse
 10
123.030785
 20
56.895769
 30
0.0
 11
0.006551895388668875
 21
-1.749987735004682
 31
0.0
210
0.0
220
0.0
230
1.0
 40
0.008236
 41
5.856542395462954
 42
6.266120920707714
  0
ELLIPSE
  5
E3
330
1F
100
AcDbEntity
  8
1
  6
Continuous
 62
     1
370
    13
100
AcDbEllipse
 10
117.323255
 20
46.396855
 30
0.0
 11
0.004090105948780444
 21
-1.749995220288709
 31
0.0
210
0.0
220
0.0
230
1.0
 40
0.005142
 41
2.714959151722756
 42
3.131387845719853
  0
ELLIPSE
  5
E4
330
1F
100
AcDbEntity
  8
1
  6
Continuous
 62
     1
370
    13
100
AcDbEllipse
 10
123.030785
 20
46.397366
 30
0.0
 11
-0.006551895388668896
 21
-1.749987735004682
 31
0.0
210
0.0
220
0.0
230
1.0
 40
0.008236
 41
3.158657040061664
 42
3.56823556530642
  0
SPLINE
  5
E5
330
1F
100
AcDbEntity
  8
1
  6
Continuous
 62
     1
370
    18
100
AcDbSpline
210
0.0
220
0.0
230
1.0
 70
     8
 71
     3
 72
    15
 73
    11
 74
     0
 42
0.000000001
 43
0.0000000001
 40
0.0
 40
0.0
 40
0.0
 40
0.0
 40
0.1132645103485704
 40
0.2622948275130314
 40
0.418550825113531
 40
0.5657450883411502
 40
0.7050036804550873
 40
0.8370258405610601
 40
0.9620064737096118
 40
1.0
 40
1.0
 40
1.0
 40
1.0
 10
113.1589812674549
 20
201.5544138686306
 30
0.0
 10
113.2282346250337
 20
201.5246964493342
 30
0.0
 10
113.3818371907401
 20
201.4457063053518
 30
0.0
 10
113.602921211695
 20
201.276998281224
 30
0.0
 10
113.8082168091642
 20
201.058558476604
 30
0.0
 10
113.9690120391307
 20
200.8131645229906
 30
0.0
 10
114.0821970830297
 20
200.5599536297102
 30
0.0
 10
114.1493041639762
 20
200.3068067376595
 30
0.0
 10
114.1770881829546
 20
200.1128536191174
 30
0.0
 10
114.1748664403303
 20
200.005426257883
 30
0.0
 10
114.1736247711868
 20
199.9803282219469
 30
0.0
  0
SPLINE
  5
E6
330
1F
100
AcDbEntity
  8
1
  6
Continuous
 62
     1
370
    18
100
AcDbSpline
210
0.0
220
0.0
230
1.0
 70
     8
 71
     3
 72
    15
 73
    11
 74
     0
 42
0.000000001
 43
0.0000000001
 40
0.0
 40
0.0
 40
0.0
 40
0.0
 40
0.0435184764794044
 40
0.180314665140234
 40
0.3225430705165128
 40
0.4679254359089691
 40
0.61502738493994
 40
0.7629634957300298
 40
0.9181772485126031
 40
1.0
 40
1.0
 40
1.0
 40
1.0
 10
126.1808364715233
 20
199.9058506835422
 30
0.0
 10
126.1793737723092
 20
199.9348263696358
 30
0.0
 10
126.1772235096078
 20
200.0545487157992
 30
0.0
 10
126.2110738383701
 20
200.2679431680298
 30
0.0
 10
126.2912350668163
 20
200.539034733148
 30
0.0
 10
126.4199585324016
 20
200.7992985270244
 30
0.0
 10
126.5915926500475
 20
201.0381420177264
 30
0.0
 10
126.8061219296772
 20
201.248029165985
 30
0.0
 10
127.0161842534078
 20
201.3980720368786
 30
0.0
 10
127.159158957975
 20
201.4636470408261
 30
0.0
 10
127.2100988836122
 20
201.4836847333986
 30
0.0
  0
SPLINE
  5
E7
330
1F
100
AcDbEntity
  8
1
  6
Continuous
 62
     1
370
    13
100
AcDbSpline
210
0.0
220
0.0
230
1.0
 70
     8
 71
     3
 72
     8
 73
     4
 74
     0
 42
0.000000001
 43
0.0000000001
 40
0.0
 40
0.0
 40
0.0
 40
0.0
 40
1.0
 40
1.0
 40
1.0
 40
1.0
 10
121.268715206843
 20
199.0305995123234
 30
0.0
 10
121.3379249874016
 20
199.1020708496827
 30
0.0
 10
121.406642468354
 20
199.173968437255
 30
0.0
 10
121.4750163816172
 20
199.2461634977457
 30
0.0
  0
SPLINE
  5
E8
330
1F
100
AcDbEntity
  8
1
  6
Continuous
 62
     1
370
    13
100
AcDbSpline
210
0.0
220
0.0
230
1.0
 70
     8
 71
     3
 72
     8
 73
     4
 74
     0
 42
0.000000001
 43
0.0000000001
 40
0.0
 40
0.0
 40
0.0
 40
0.0
 40
1.0
 40
1.0
 40
1.0
 40
1.0
 10
118.8788577091404
 20
199.2461634977457
 30
0.0
 10
118.9472316224062
 20
199.1739684372522
 30
0.0
 10
119.0159491033612
 20
199.1020708496772
 30
0.0
 10
119.0851588839225
 20
199.0305995123151
 30
0.0
  0
SPLINE
  5
E9
330
1F
100
AcDbEntity
  8
1
  6
Continuous
 62
     1
370
    13
100
AcDbSpline
210
0.0
220
0.0
230
1.0
 70
     8
 71
     3
 72
     8
 73
     4
 74
     0
 42
0.000000001
 43
0.0000000001
 40
0.0
 40
0.0
 40
0.0
 40
0.0
 40
1.0
 40
1.0
 40
1.0
 40
1.0
 10
121.2687152068492
 20
199.0305995123181
 30
0.0
 10
121.394239942661
 20
199.0569455350174
 30
0.0
 10
121.5193649812012
 20
199.0833929138926
 30
0.0
 10
121.6440871700847
 20
199.1100178227369
 30
0.0
  0
SPLINE
  5
EA
330
1F
100
AcDbEntity
  8
1
  6
Continuous
 62
     1
370
    13
100
AcDbSpline
210
0.0
220
0.0
230
1.0
 70
     8
 71
     3
 72
     8
 73
     4
 74
     0
 42
0.000000001
 43
0.0000000001
 40
0.0
 40
0.0
 40
0.0
 40
0.0
 40
1.0
 40
1.0
 40
1.0
 40
1.0
 10
118.7097869206737
 20
199.1100178227375
 30
0.0
 10
118.8345091095629
 20
199.0833929138919
 30
0.0
 10
118.9596341481048
 20
199.0569455350156
 30
0.0
 10
119.0851588839225
 20
199.030599512315
 30
0.0
  0
SPLINE
  5
EB
330
1F
100
AcDbEntity
  8
1
  6
Continuous
 62
     1
370
    13
100
AcDbSpline
210
0.0
220
0.0
230
1.0
 70
     8
 71
     3
 72
    29
 73
    25
 74
     0
 42
0.000000001
 43
0.0000000001
 40
0.0
 40
0.0
 40
0.0
 40
0.0
 40
0.1249999999999998
 40
0.1249999999999998
 40
0.2499999999999997
 40
0.2499999999999997
 40
0.3749999999999995
 40
0.3749999999999995
 40
0.4374999999999993
 40
0.4687499999999994
 40
0.4687499999999994
 40
0.4999999999999996
 40
0.4999999999999996
 40
0.6249999999999993
 40
0.6249999999999993
 40
0.7499999999999992
 40
0.7499999999999992
 40
0.874999999999999
 40
0.874999999999999
 40
0.9062499999999992
 40
0.9062499999999992
 40
0.9374999999999994
 40
0.9374999999999994
 40
1.0
 40
1.0
 40
1.0
 40
1.0
 10
121.6440871700847
 20
199.1100178227369
 30
0.0
 10
121.7955005062386
 20
199.1400177142733
 30
0.0
 10
121.9456082542729
 20
199.169328705588
 30
0.0
 10
122.242609430664
 20
199.2267230011179
 30
0.0
 10
122.3895063492763
 20
199.2548212538476
 30
0.0
 10
122.6796637131615
 20
199.3102018243734
 30
0.0
 10
122.8229277527961
 20
199.3374865599665
 30
0.0
 10
123.0348261844881
 20
199.3780970483818
 30
0.0
 10
123.1400262046226
 20
199.3983228949297
 30
0.0
 10
123.2440484337508
 20
199.4184823585604
 30
0.0
 10
123.3131283640767
 20
199.4319130205804
 30
0.0
 10
123.3475768836281
 20
199.4386322267565
 30
0.0
 10
123.5185866611482
 20
199.4721134077108
 30
0.0
 10
123.6509788047591
 20
199.4984390640798
 30
0.0
 10
123.9068938207526
 20
199.550521041916
 30
0.0
 10
124.0304188713942
 20
199.5762763425193
 30
0.0
 10
124.2683774330875
 20
199.6275179639923
 30
0.0
 10
124.382813649437
 20
199.6530033154342
 30
0.0
 10
124.5198761669441
 20
199.6848689164842
 30
0.0
 10
124.5469887770654
 20
199.6912424807492
 30
0.0
 10
124.6006033517961
 20
199.7039950106744
 30
0.0
 10
124.6270951710784
 20
199.7103717308742
 30
0.0
 10
124.7053616936855
 20
199.7294486300311
 30
0.0
 10
124.756021632149
 20
199.7421176651609
 30
0.0
 10
124.8051430306722
 20
199.7547546648422
 30
0.0
  0
SPLINE
  5
EC
330
1F
100
AcDbEntity
  8
1
  6
Continuous
 62
     1
370
    13
100
AcDbSpline
210
0.0
220
0.0
230
1.0
 70
     8
 71
     3
 72
    29
 73
    25
 74
     0
 42
0.000000001
 43
0.0000000001
 40
0.0
 40
0.0
 40
0.0
 40
0.0
 40
0.000358068330856
 40
0.000358068330856
 40
0.1253133097894989
 40
0.1253133097894989
 40
0.250268551248142
 40
0.250268551248142
 40
0.3127461719774635
 40
0.3439849823421242
 40
0.3439849823421242
 40
0.3752237927067851
 40
0.3752237927067851
 40
0.5001790341654277
 40
0.5001790341654277
 40
0.6251342756240706
 40
0.6251342756240706
 40
0.7500895170827135
 40
0.7500895170827135
 40
0.8125671378120353
 40
0.8125671378120353
 40
0.8750447585413567
 40
0.8750447585413567
 40
1.0
 40
1.0
 40
1.0
 40
1.0
 10
126.1769372674682
 20
199.8936237764975
 30
0.0
 10
126.1769367155468
 20
199.8936246105135
 30
0.0
 10
126.1769361635222
 20
199.8936254444613
 30
0.0
 10
126.1768787101313
 20
199.8937122374217
 30
0.0
 10
126.1727310187671
 20
199.8999676850936
 30
0.0
 10
126.1565759255275
 20
199.9244583205908
 30
0.0
 10
126.1445676889056
 20
199.9426945055058
 30
0.0
 10
126.1208238879282
 20
199.9790667932744
 30
0.0
 10
126.1075180632252
 20
199.9995119506713
 30
0.0
 10
126.0920835619461
 20
200.0233931025858
 30
0.0
 10
126.0813227995761
 20
200.0400856784375
 30
0.0
 10
126.0756961866935
 20
200.0488344712072
 30
0.0
 10
126.0465615541147
 20
200.0942627607846
 30
0.0
 10
126.0200384344258
 20
200.1360035586454
 30
0.0
 10
125.961446677174
 20
200.2296895637127
 30
0.0
 10
125.9293754912486
 20
200.281637561265
 30
0.0
 10
125.8604500363538
 20
200.3955147762714
 30
0.0
 10
125.8235938038308
 20
200.4574450252742
 30
0.0
 10
125.765256516531
 20
200.5578866782857
 30
0.0
 10
125.7452953997412
 20
200.5926383782491
 30
0.0
 10
125.7044701173853
 20
200.6646536846995
 30
0.0
 10
125.6837144481379
 20
200.7017260520093
 30
0.0
 10
125.6205876533725
 20
200.8161052543269
 30
0.0
 10
125.5773567921878
 20
200.8965668975074
 30
0.0
 10
125.5334204262693
 20
200.9812452203994
 30
0.0
  0
SPLINE
  5
ED
330
1F
100
AcDbEntity
  8
1
  6
Continuous
 62
     1
370
    13
100
AcDbSpline
210
0.0
220
0.0
230
1.0
 70
     8
 71
     3
 72
    30
 73
    26
 74
     0
 42
0.000000001
 43
0.0000000001
 40
0.0
 40
0.0
 40
0.0
 40
0.0
 40
0.1251909443053527
 40
0.1251909443053527
 40
0.2503818886107055
 40
0.2503818886107055
 40
0.3755728329160586
 40
0.3755728329160586
 40
0.4381683050687348
 40
0.4694660411450732
 40
0.4694660411450732
 40
0.5007637772214116
 40
0.5007637772214116
 40
0.6259547215267648
 40
0.6259547215267648
 40
0.7511456658321181
 40
0.7511456658321181
 40
0.8137411379847946
 40
0.845038874061133
 40
0.845038874061133
 40
0.8763366101374712
 40
0.8763366101374712
 40
0.9389320822901479
 40
0.9389320822901479
 40
1.0
 40
1.0
 40
1.0
 40
1.0
 10
114.8028264559156
 20
201.0199804371524
 30
0.0
 10
114.7597717965264
 20
200.9379510050744
 30
0.0
 10
114.7176924962559
 20
200.8604481988783
 30
0.0
 10
114.6362575130165
 20
200.7142446286469
 30
0.0
 10
114.5969001903459
 20
200.6455437051825
 30
0.0
 10
114.5216721971999
 20
200.5169321688623
 30
0.0
 10
114.4857996314655
 20
200.4570203333842
 30
0.0
 10
114.4352120419479
 20
200.3739299011459
 30
0.0
 10
114.4107243504673
 20
200.3340822036886
 30
0.0
 10
114.3875705922204
 20
200.2968480770525
 30
0.0
 10
114.3724460807132
 20
200.2726161669676
 30
0.0
 10
114.3650349620601
 20
200.2607885188158
 30
0.0
 10
114.3290098811137
 20
200.2034934902159
 30
0.0
 10
114.3033075370551
 20
200.1632560086087
 30
0.0
 10
114.258570956897
 20
200.0938280797629
 30
0.0
 10
114.2395353444165
 20
200.0646370371616
 30
0.0
 10
114.2163589908567
 20
200.0292820421369
 30
0.0
 10
114.2061161014136
 20
200.0137165479003
 30
0.0
 10
114.1979736424084
 20
200.0013867333715
 30
0.0
 10
114.1930222754848
 20
199.993896475972
 30
0.0
 10
114.1907833175912
 20
199.9905134573594
 30
0.0
 10
114.1848154309875
 20
199.981502911952
 30
0.0
 10
114.1818306261824
 20
199.9770060166271
 30
0.0
 10
114.1779187517427
 20
199.9711148708263
 30
0.0
 10
114.176955092088
 20
199.9696654083638
 30
0.0
 10
114.176937296945
 20
199.9696386609233
 30
0.0
  0
SPLINE
  5
EE
330
1F
100
AcDbEntity
  8
1
  6
Continuous
 62
     1
370
    13
100
AcDbSpline
210
0.0
220
0.0
230
1.0
 70
     8
 71
     3
 72
    28
 73
    24
 74
     0
 42
0.000000001
 43
0.0000000001
 40
0.0
 40
0.0
 40
0.0
 40
0.0
 40
0.00015571755515
 40
0.00015571755515
 40
0.0626459852079532
 40
0.0626459852079532
 40
0.1251362528607564
 40
0.1251362528607564
 40
0.2501167881663623
 40
0.2501167881663623
 40
0.3750973234719686
 40
0.3750973234719686
 40
0.5000778587775749
 40
0.5000778587775749
 40
0.562568126430378
 40
0.562568126430378
 40
0.625058394083181
 40
0.625058394083181
 40
0.7500389293887871
 40
0.7500389293887871
 40
0.8750194646943936
 40
0.8750194646943936
 40
1.0
 40
1.0
 40
1.0
 40
1.0
 10
113.158084455785
 20
201.559581870032
 30
0.0
 10
113.1580851740703
 20
201.5595825659244
 30
0.0
 10
113.1580858926668
 20
201.5595832614954
 30
0.0
 10
113.1580987163403
 20
201.5595956740923
 30
0.0
 10
113.1590321288601
 20
201.5604987447179
 30
0.0
 10
113.1627699818136
 20
201.5641201793439
 30
0.0
 10
113.1655591065252
 20
201.5668237396467
 30
0.0
 10
113.1766072228605
 20
201.577557740296
 30
0.0
 10
113.1875444097566
 20
201.5882044129268
 30
0.0
 10
113.2162085206595
 20
201.6163655012998
 30
0.0
 10
113.2339363695836
 20
201.6338800776945
 30
0.0
 10
113.2759006885798
 20
201.675890122209
 30
0.0
 10
113.3001380625219
 20
201.7003847041444
 30
0.0
 10
113.3411975533192
 20
201.7426233835575
 30
0.0
 10
113.3556983209318
 20
201.7576531484752
 30
0.0
 10
113.3859187161685
 20
201.7892790961425
 30
0.0
 10
113.4016659805861
 20
201.8059032481503
 30
0.0
 10
113.4506835945424
 20
201.8582128298548
 30
0.0
 10
113.4857295738755
 20
201.8963278789869
 30
0.0
 10
113.559860440635
 20
201.9792397577924
 30
0.0
 10
113.5989474917411
 20
202.0240353852899
 30
0.0
 10
113.6804491568875
 20
202.1207598204874
 30
0.0
 10
113.7228664764402
 20
202.1726858130391
 30
0.0
 10
113.7665467691215
 20
202.2285600278293
 30
0.0
  0
SPLINE
  5
EF
330
1F
100
AcDbEntity
  8
1
  6
Continuous
 62
     1
370
    13
100
AcDbSpline
210
0.0
220
0.0
230
1.0
 70
     8
 71
     3
 72
    25
 73
    21
 74
     0
 42
0.000000001
 43
0.0000000001
 40
0.0
 40
0.0
 40
0.0
 40
0.0
 40
0.1249809862593071
 40
0.1249809862593071
 40
0.1874714793889615
 40
0.1874714793889615
 40
0.2499619725186157
 40
0.2499619725186157
 40
0.374942958777923
 40
0.374942958777923
 40
0.4999239450372303
 40
0.4999239450372303
 40
0.6249049312965375
 40
0.6249049312965375
 40
0.7498859175558448
 40
0.7498859175558448
 40
0.8748669038151522
 40
0.9998478900744594
 40
0.9998478900744594
 40
1.0
 40
1.0
 40
1.0
 40
1.0
 10
126.5829907666924
 20
202.1832608148702
 30
0.0
 10
126.6278355714965
 20
202.1255099106598
 30
0.0
 10
126.6716557348369
 20
202.0715692096512
 30
0.0
 10
126.7351324330561
 20
201.9959202751217
 30
0.0
 10
126.7559344948743
 20
201.9715631384767
 30
0.0
 10
126.7965997677144
 20
201.9246512413542
 30
0.0
 10
126.8163978080903
 20
201.902170722163
 30
0.0
 10
126.8740705944302
 20
201.8375313589016
 30
0.0
 10
126.9102235015911
 20
201.7981660925124
 30
0.0
 10
126.9773459745795
 20
201.7264608545285
 30
0.0
 10
127.0083174544486
 20
201.6941220321467
 30
0.0
 10
127.0644830035611
 20
201.6363065380558
 30
0.0
 10
127.0896789907599
 20
201.6108297126858
 30
0.0
 10
127.1336370273568
 20
201.5668223080313
 30
0.0
 10
127.152046095644
 20
201.5486427650488
 30
0.0
 10
127.1816011691306
 20
201.5196182898362
 30
0.0
 10
127.2039097353403
 20
201.4979144118893
 30
0.0
 10
127.2114496823854
 20
201.4906327144252
 30
0.0
 10
127.2114188563343
 20
201.4906625394459
 30
0.0
 10
127.2114181375815
 20
201.4906632348554
 30
0.0
 10
127.2114174187922
 20
201.4906639302272
 30
0.0
  0
SPLINE
  5
F0
330
1F
100
AcDbEntity
  8
1
  6
Continuous
 62
     1
370
    13
100
AcDbSpline
210
0.0
220
0.0
230
1.0
 70
     8
 71
     3
 72
    18
 73
    14
 74
     0
 42
0.000000001
 43
0.0000000001
 40
0.0
 40
0.0
 40
0.0
 40
0.0
 40
0.2500000000000001
 40
0.2500000000000001
 40
0.375
 40
0.375
 40
0.5
 40
0.5
 40
0.625
 40
0.625
 40
0.75
 40
0.75
 40
1.0
 40
1.0
 40
1.0
 40
1.0
 10
117.319256923442
 20
203.8665944082209
 30
0.0
 10
117.795160064867
 20
203.8338153606671
 30
0.0
 10
118.2714209278475
 20
203.8133294976996
 30
0.0
 10
118.9861557031024
 20
203.7940843135666
 30
0.0
 10
119.2244577878544
 20
203.7895801547307
 30
0.0
 10
119.701151783388
 20
203.7835119677807
 30
0.0
 10
119.939543923818
 20
203.7819407215492
 30
0.0
 10
120.4164052811382
 20
203.7813415688634
 30
0.0
 10
120.6548015246728
 20
203.7823128403909
 30
0.0
 10
121.1315193469091
 20
203.7870386471317
 30
0.0
 10
121.3698407781879
 20
203.7907993063444
 30
0.0
 10
122.0846643050484
 20
203.8074548606659
 30
0.0
 10
122.561025867587
 20
203.8257131269463
 30
0.0
 10
123.0370898708993
 20
203.855717001645
 30
0.0
  0
SPLINE
  5
F1
330
1F
100
AcDbEntity
  8
1
  6
Continuous
 62
     1
370
    13
100
AcDbSpline
210
0.0
220
0.0
230
1.0
 70
     8
 71
     3
 72
    38
 73
    34
 74
     0
 42
0.000000001
 43
0.0000000001
 40
0.0
 40
0.0
 40
0.0
 40
0.0
 40
0.0624999999999993
 40
0.0624999999999993
 40
0.1249999999999986
 40
0.1249999999999986
 40
0.1874999999999979
 40
0.1874999999999979
 40
0.2187499999999977
 40
0.2187499999999977
 40
0.2499999999999975
 40
0.2499999999999975
 40
0.374999999999997
 40
0.374999999999997
 40
0.4999999999999964
 40
0.4999999999999964
 40
0.5312499999999961
 40
0.5312499999999961
 40
0.5624999999999958
 40
0.5624999999999958
 40
0.624999999999996
 40
0.624999999999996
 40
0.7499999999999971
 40
0.7499999999999971
 40
0.8124999999999977
 40
0.8124999999999977
 40
0.8437499999999979
 40
0.8437499999999979
 40
0.874999999999998
 40
0.874999999999998
 40
0.937499999999999
 40
0.937499999999999
 40
1.0
 40
1.0
 40
1.0
 40
1.0
 10
113.7665467691215
 20
202.2285600278293
 30
0.0
 10
113.8043843652425
 20
202.276960481284
 30
0.0
 10
113.8456987483228
 20
202.3256754895831
 30
0.0
 10
113.9348739524123
 20
202.423580238785
 30
0.0
 10
113.9827363943822
 20
202.4727703881061
 30
0.0
 10
114.0847908809979
 20
202.5714599795795
 30
0.0
 10
114.1389837573356
 20
202.6209599145753
 30
0.0
 10
114.2249696830125
 20
202.6952989006955
 30
0.0
 10
114.2544155241731
 20
202.72009316911
 30
0.0
 10
114.3148790028451
 20
202.7696832923612
 30
0.0
 10
114.3459210465495
 20
202.7944981587688
 30
0.0
 10
114.5048376426852
 20
202.9183017659734
 30
0.0
 10
114.6402886259882
 20
203.0138335935532
 30
0.0
 10
114.9263862124935
 20
203.1966003065986
 30
0.0
 10
115.0770432200471
 20
203.283854218144
 30
0.0
 10
115.2749136688659
 20
203.3860929393537
 30
0.0
 10
115.3149921112209
 20
203.4062033986085
 30
0.0
 10
115.395457479559
 20
203.4453574736561
 30
0.0
 10
115.4359247239983
 20
203.4644436804907
 30
0.0
 10
115.5580317390331
 20
203.520178972254
 30
0.0
 10
115.6403750203683
 20
203.555309458088
 30
0.0
 10
115.89029751525
 20
203.6540519324375
 30
0.0
 10
116.0607393400669
 20
203.7111038953091
 30
0.0
 10
116.322974272335
 20
203.7797667902462
 30
0.0
 10
116.4114889100145
 20
203.7998129701508
 30
0.0
 10
116.5460856958996
 20
203.8249541524895
 30
0.0
 10
116.5913431107352
 20
203.8325228322637
 30
0.0
 10
116.6818861029283
 20
203.8458069650478
 30
0.0
 10
116.7272034040983
 20
203.851531938246
 30
0.0
 10
116.8632964371717
 20
203.8658621993281
 30
0.0
 10
116.9542135824357
 20
203.8716163714626
 30
0.0
 10
117.1364399677939
 20
203.8751360114062
 30
0.0
 10
117.2277494043203
 20
203.8728972229316
 30
0.0
 10
117.3192569234421
 20
203.8665944082205
 30
0.0
  0
SPLINE
  5
F2
330
1F
100
AcDbEntity
  8
1
  6
Continuous
 62
     1
370
    13
100
AcDbSpline
210
0.0
220
0.0
230
1.0
 70
     8
 71
     3
 72
    40
 73
    36
 74
     0
 42
0.000000001
 43
0.0000000001
 40
0.0
 40
0.0
 40
0.0
 40
0.0
 40
0.0625000000000001
 40
0.0625000000000001
 40
0.1250000000000002
 40
0.1250000000000002
 40
0.1875000000000002
 40
0.1875000000000002
 40
0.2187500000000003
 40
0.2187500000000003
 40
0.2500000000000003
 40
0.2500000000000003
 40
0.3750000000000014
 40
0.3750000000000014
 40
0.4375000000000021
 40
0.4375000000000021
 40
0.4687500000000023
 40
0.4687500000000023
 40
0.5000000000000026
 40
0.5000000000000026
 40
0.6250000000000031
 40
0.6250000000000031
 40
0.6875000000000033
 40
0.6875000000000033
 40
0.718750000000003
 40
0.718750000000003
 40
0.7500000000000026
 40
0.7500000000000026
 40
0.8750000000000013
 40
0.8750000000000013
 40
0.9375000000000008
 40
0.9375000000000008
 40
0.9687500000000004
 40
0.9687500000000004
 40
1.0
 40
1.0
 40
1.0
 40
1.0
 10
123.0370898708993
 20
203.8557170016453
 30
0.0
 10
123.1283624860313
 20
203.8614694468812
 30
0.0
 10
123.219337799384
 20
203.8631075400564
 30
0.0
 10
123.4007043458435
 20
203.8583370106216
 30
0.0
 10
123.4910959042887
 20
203.8519330546504
 30
0.0
 10
123.6713240954104
 20
203.8315338520279
 30
0.0
 10
123.7611610630717
 20
203.8175433868412
 30
0.0
 10
123.8955280703217
 20
203.7912950491941
 30
0.0
 10
123.9401621595038
 20
203.7816840189383
 30
0.0
 10
124.0287113517433
 20
203.7609434365119
 30
0.0
 10
124.0726918762225
 20
203.7498014727231
 30
0.0
 10
124.2911978516869
 20
203.6905058948286
 30
0.0
 10
124.4615737379967
 20
203.6317111540359
 30
0.0
 10
124.7114247941186
 20
203.5303087132413
 30
0.0
 10
124.7937482519366
 20
203.4942827025767
 30
0.0
 10
124.9158397987239
 20
203.4371916818428
 30
0.0
 10
124.956364370557
 20
203.4176202113924
 30
0.0
 10
125.0364525871429
 20
203.3777439909494
 30
0.0
 10
125.0760585087465
 20
203.3574213456564
 30
0.0
 10
125.2719254526214
 20
203.2540225919521
 30
0.0
 10
125.4217512529966
 20
203.1656570026961
 30
0.0
 10
125.6360827606923
 20
203.0263699962544
 30
0.0
 10
125.7057818959339
 20
202.9788046327225
 30
0.0
 10
125.8076005378427
 20
202.9058659068263
 30
0.0
 10
125.8411641175915
 20
202.8812258955034
 30
0.0
 10
125.9068155459578
 20
202.8318342081558
 30
0.0
 10
125.9389287577878
 20
202.8070677446922
 30
0.0
 10
126.0959434205439
 20
202.6829620205291
 30
0.0
 10
126.2102691141819
 20
202.5828280682339
 30
0.0
 10
126.3641385801688
 20
202.4325182092472
 30
0.0
 10
126.4124769989139
 20
202.3823916642882
 30
0.0
 10
126.4803049515311
 20
202.3072794215155
 30
0.0
 10
126.5021670939615
 20
202.2822118722922
 30
0.0
 10
126.543975746528
 20
202.2324765593146
 30
0.0
 10
126.5639518006482
 20
202.2077790953955
 30
0.0
 10
126.5829907666925
 20
202.1832608148702
 30
0.0
  0
SPLINE
  5
F3
330
1F
100
AcDbEntity
  8
1
  6
Continuous
 62
     1
370
    13
100
AcDbSpline
210
0.0
220
0.0
230
1.0
 70
     8
 71
     3
 72
    18
 73
    14
 74
     0
 42
0.000000001
 43
0.0000000001
 40
0.0
 40
0.0
 40
0.0
 40
0.0
 40
0.2500000000000001
 40
0.2500000000000001
 40
0.3750000000000001
 40
0.3750000000000001
 40
0.5000000000000001
 40
0.5000000000000001
 40
0.625
 40
0.625
 40
0.7500000000000001
 40
0.7500000000000001
 40
1.0
 40
1.0
 40
1.0
 40
1.0
 10
123.0307848763828
 20
203.1614220632815
 30
0.0
 10
122.5551378067178
 20
203.16533983797
 30
0.0
 10
122.0795759663942
 20
203.1751225336476
 30
0.0
 10
121.3661921819234
 20
203.1869735771427
 30
0.0
 10
121.1283906180525
 20
203.1904443611096
 30
0.0
 10
120.6527531356971
 20
203.1950218711936
 30
0.0
 10
120.4149170334668
 20
203.1961159531287
 30
0.0
 10
119.9392036986366
 20
203.1954737963143
 30
0.0
 10
119.7013681849249
 20
203.1937395255111
 30
0.0
 10
119.2257291570983
 20
203.1881429677771
 30
0.0
 10
118.9879253916818
 20
203.1842954841677
 30
0.0
 10
118.2745260570848
 20
203.1719561177526
 30
0.0
 10
117.7989413130454
 20
203.1627430366233
 30
0.0
 10
117.3232549942433
 20
203.160297123444
 30
0.0
  0
SPLINE
  5
F4
330
1F
100
AcDbEntity
  8
1
  6
Continuous
 62
     1
370
    13
100
AcDbSpline
210
0.0
220
0.0
230
1.0
 70
     8
 71
     3
 72
    46
 73
    42
 74
     0
 42
0.000000001
 43
0.0000000001
 40
0.0
 40
0.0
 40
0.0
 40
0.0
 40
0.0312500000000005
 40
0.0312500000000005
 40
0.062500000000001
 40
0.062500000000001
 40
0.1250000000000011
 40
0.1250000000000011
 40
0.2500000000000012
 40
0.2500000000000012
 40
0.3125000000000012
 40
0.3125000000000012
 40
0.3437500000000011
 40
0.3437500000000011
 40
0.3750000000000009
 40
0.3750000000000009
 40
0.5000000000000006
 40
0.5000000000000006
 40
0.5625000000000007
 40
0.5625000000000007
 40
0.5937500000000007
 40
0.5937500000000007
 40
0.6250000000000008
 40
0.6250000000000008
 40
0.6874999999999999
 40
0.6874999999999999
 40
0.7499999999999992
 40
0.7499999999999992
 40
0.8124999999999986
 40
0.8124999999999986
 40
0.8437499999999986
 40
0.8437499999999986
 40
0.8749999999999987
 40
0.8749999999999987
 40
0.9374999999999991
 40
0.9374999999999991
 40
0.9531249999999994
 40
0.9531249999999994
 40
0.9687499999999998
 40
0.9687499999999998
 40
1.0
 40
1.0
 40
1.0
 40
1.0
 10
125.5334204262693
 20
200.9812452203994
 30
0.0
 10
125.5195358382985
 20
201.0043902023565
 30
0.0
 10
125.5051338334028
 20
201.0278660592695
 30
0.0
 10
125.475307675934
 20
201.0754708852707
 30
0.0
 10
125.4598584358485
 20
201.0996378099273
 30
0.0
 10
125.4122260289841
 20
201.1727474833625
 30
0.0
 10
125.3787526982173
 20
201.2223189795642
 30
0.0
 10
125.2734487907959
 20
201.3733529934246
 30
0.0
 10
125.1967677625707
 20
201.4771364420249
 30
0.0
 10
125.0724408952222
 20
201.6368251329438
 30
0.0
 10
125.0294391988292
 20
201.6907239897409
 30
0.0
 10
124.9625696291791
 20
201.7724863137884
 30
0.0
 10
124.9398549751379
 20
201.7999269836074
 30
0.0
 10
124.893968073105
 20
201.8546880009681
 30
0.0
 10
124.8707601608584
 20
201.8820528336618
 30
0.0
 10
124.7533997632921
 20
202.0187532786859
 30
0.0
 10
124.6553436554113
 20
202.1277618700129
 30
0.0
 10
124.5013799578511
 20
202.2894271163464
 30
0.0
 10
124.4489013696777
 20
202.3429997934143
 30
0.0
 10
124.3682315135404
 20
202.4226024313836
 30
0.0
 10
124.3410150603345
 20
202.4490095089713
 30
0.0
 10
124.2858755445174
 20
202.5015055987466
 30
0.0
 10
124.2580290251833
 20
202.5275209732326
 30
0.0
 10
124.1737667694037
 20
202.6045912240484
 30
0.0
 10
124.1165610215705
 20
202.6547548528336
 30
0.0
 10
123.9995227916209
 20
202.7518531131472
 30
0.0
 10
123.9396971547569
 20
202.7987970861637
 30
0.0
 10
123.8165004766274
 20
202.8881828838375
 30
0.0
 10
123.7531442674507
 20
202.9306448742296
 30
0.0
 10
123.6542647314179
 20
202.9893327053389
 30
0.0
 10
123.6206576654992
 20
203.008052511914
 30
0.0
 10
123.5518331051469
 20
203.0433746248744
 30
0.0
 10
123.5168772812868
 20
203.0598346697381
 30
0.0
 10
123.410604924349
 20
203.1046475339008
 30
0.0
 10
123.3377031852717
 20
203.128605457791
 30
0.0
 10
123.2428599917329
 20
203.1478897643909
 30
0.0
 10
123.2236650327267
 20
203.1512109021615
 30
0.0
 10
123.1852873756295
 20
203.1566249864303
 30
0.0
 10
123.1660629459729
 20
203.1587285847753
 30
0.0
 10
123.1082792867974
 20
203.1631631985423
 30
0.0
 10
123.0696094795161
 20
203.1636142947345
 30
0.0
 10
123.0307848763828
 20
203.1614220632815
 30
0.0
  0
SPLINE
  5
F5
330
1F
100
AcDbEntity
  8
1
  6
Continuous
 62
     1
370
    13
100
AcDbSpline
210
0.0
220
0.0
230
1.0
 70
     8
 71
     3
 72
    42
 73
    38
 74
     0
 42
0.000000001
 43
0.0000000001
 40
0.0
 40
0.0
 40
0.0
 40
0.0
 40
0.0624999999999999
 40
0.0624999999999999
 40
0.09375
 40
0.09375
 40
0.1250000000000001
 40
0.1250000000000001
 40
0.1406250000000002
 40
0.1406250000000002
 40
0.1562500000000002
 40
0.1562500000000002
 40
0.1874999999999997
 40
0.1874999999999997
 40
0.2499999999999994
 40
0.2499999999999994
 40
0.3124999999999988
 40
0.3124999999999988
 40
0.3749999999999982
 40
0.3749999999999982
 40
0.4062499999999982
 40
0.4062499999999982
 40
0.4374999999999981
 40
0.4374999999999981
 40
0.4999999999999976
 40
0.4999999999999976
 40
0.6249999999999964
 40
0.6249999999999964
 40
0.6874999999999957
 40
0.6874999999999957
 40
0.7187499999999958
 40
0.7187499999999958
 40
0.7499999999999958
 40
0.7499999999999958
 40
0.8749999999999979
 40
0.8749999999999979
 40
1.0
 40
1.0
 40
1.0
 40
1.0
 10
117.3232549942433
 20
203.160297123444
 30
0.0
 10
117.24509496246
 20
203.1650892135429
 30
0.0
 10
117.1685053825634
 20
203.1593461640539
 30
0.0
 10
117.055555103025
 20
203.1377830543369
 30
0.0
 10
117.0182265334424
 20
203.1284428719705
 30
0.0
 10
116.9441398686013
 20
203.105949247108
 30
0.0
 10
116.907337772732
 20
203.0927665964785
 30
0.0
 10
116.8532039348651
 20
203.0707988064047
 30
0.0
 10
116.8352796961818
 20
203.0630889759367
 30
0.0
 10
116.7999024187487
 20
203.0470816776326
 30
0.0
 10
116.7824315550746
 20
203.0387783018581
 30
0.0
 10
116.7306020970619
 20
203.0130696508494
 30
0.0
 10
116.6968239098681
 20
202.9948697319112
 30
0.0
 10
116.5973718005232
 20
202.9377225045391
 30
0.0
 10
116.5335567607289
 20
202.8962612573114
 30
0.0
 10
116.4093784566471
 20
202.8088095967119
 30
0.0
 10
116.3490285683099
 20
202.7628000887259
 30
0.0
 10
116.2309172214858
 20
202.6675141205165
 30
0.0
 10
116.173162069701
 20
202.618228614263
 30
0.0
 10
116.0880730997667
 20
202.5424434281662
 30
0.0
 10
116.0599695155985
 20
202.5168692357202
 30
0.0
 10
116.004234192875
 20
202.4651678374621
 30
0.0
 10
115.9765895051391
 20
202.4390272702512
 30
0.0
 10
115.8945833905011
 20
202.3601309915306
 30
0.0
 10
115.8413265779467
 20
202.3070854240481
 30
0.0
 10
115.6853748181104
 20
202.1472501724982
 30
0.0
 10
115.5864353288072
 20
202.0397757281347
 30
0.0
 10
115.4448604518237
 20
201.8786130398288
 30
0.0
 10
115.3988206787099
 20
201.8248901428048
 30
0.0
 10
115.3314990681091
 20
201.7444163134028
 30
0.0
 10
115.3093488124092
 20
201.717609810332
 30
0.0
 10
115.2656378085086
 20
201.6640488696043
 30
0.0
 10
115.2441646022868
 20
201.637400857978
 30
0.0
 10
115.1390972178804
 20
201.5053560744734
 30
0.0
 10
115.0619429697124
 20
201.4030432618384
 30
0.0
 10
114.9215887396816
 20
201.2057812114132
 30
0.0
 10
114.8583817494711
 20
201.1108189395318
 30
0.0
 10
114.8028264559156
 20
201.0199804371524
 30
0.0
  0
SPLINE
  5
F6
330
1F
100
AcDbEntity
  8
1
  6
Continuous
 62
     1
370
    13
100
AcDbSpline
210
0.0
220
0.0
230
1.0
 70
     8
 71
     3
 72
    25
 73
    21
 74
     0
 42
0.000000001
 43
0.0000000001
 40
0.0
 40
0.0
 40
0.0
 40
0.0
 40
0.1250000000000001
 40
0.1250000000000001
 40
0.2500000000000001
 40
0.2500000000000001
 40
0.3750000000000002
 40
0.3750000000000002
 40
0.4062500000000002
 40
0.4062500000000002
 40
0.4375000000000003
 40
0.5000000000000004
 40
0.5000000000000004
 40
0.7500000000000004
 40
0.7500000000000004
 40
0.8125000000000003
 40
0.8125000000000003
 40
0.8750000000000002
 40
0.8750000000000002
 40
1.0
 40
1.0
 40
1.0
 40
1.0
 10
115.5487310600854
 20
199.7547546648422
 30
0.0
 10
115.646719134691
 20
199.7295461955235
 30
0.0
 10
115.750184132803
 20
199.7043725021024
 30
0.0
 10
115.9674578304237
 20
199.6538235465054
 30
0.0
 10
116.0812696831877
 20
199.6284492274643
 30
0.0
 10
116.3189738731037
 20
199.5772210711348
 30
0.0
 10
116.4428680234741
 20
199.5513682283101
 30
0.0
 10
116.6040375597151
 20
199.5185554568179
 30
0.0
 10
116.6365859208315
 20
199.5119683008025
 30
0.0
 10
116.7019872170441
 20
199.498804224778
 30
0.0
 10
116.8006661855899
 20
199.479048918816
 30
0.0
 10
116.9010439752557
 20
199.4592426524661
 30
0.0
 10
117.2392887324126
 20
199.3930027458746
 30
0.0
 10
117.5215565629916
 20
199.3393351568128
 30
0.0
 10
117.8874109833131
 20
199.2695101852395
 30
0.0
 10
117.9613073708732
 20
199.2553920454526
 30
0.0
 10
118.1095240587204
 20
199.2269851662029
 30
0.0
 10
118.1839323539338
 20
199.21267950875
 30
0.0
 10
118.4079818172815
 20
199.1693850733579
 30
0.0
 10
118.5584508430825
 20
199.1400024068467
 30
0.0
 10
118.7097869206736
 20
199.1100178227368
 30
0.0
  0
SPLINE
  5
F7
330
1F
100
AcDbEntity
  8
1
  6
Continuous
 62
     1
370
    18
100
AcDbSpline
210
0.0
220
0.0
230
1.0
 70
    24
 71
     3
 72
     8
 73
     4
 74
     0
 42
0.000000001
 43
0.0000000001
 40
0.0
 40
0.0
 40
0.0
 40
0.0
 40
1.0
 40
1.0
 40
1.0
 40
1.0
 10
257.3827084796447
 20
199.0305995123233
 30
0.0000000000000001
 10
257.4151954511709
 20
199.1020708496808
 30
0.0000000000000001
 10
257.4478761727939
 20
199.1739684372513
 30
0.0000000000000001
 10
257.4806921093797
 20
199.2461634977402
 30
-0.0000000000000001
  0
SPLINE
  5
F8
330
1F
100
AcDbEntity
  8
1
  6
Continuous
 62
     1
370
    18
100
AcDbSpline
210
0.0
220
0.0
230
1.0
 70
    24
 71
     3
 72
     8
 73
     4
 74
     0
 42
0.000000001
 43
0.0000000001
 40
0.0
 40
0.0
 40
0.0
 40
0.0
 40
1.0
 40
1.0
 40
1.0
 40
1.0
 10
268.3521386249245
 20
199.2461634977458
 30
0.0000000000000001
 10
268.3849545615125
 20
199.1739684372522
 30
-0.0000000000000001
 10
268.4176352831375
 20
199.1020708496772
 30
-0.0000000000000001
 10
268.4501222546657
 20
199.0305995123151
 30
-0.0000000000000001
  0
SPLINE
  5
F9
330
1F
100
AcDbEntity
  8
1
  6
Continuous
 62
     1
370
    13
100
AcDbSpline
210
0.0
220
0.0
230
1.0
 70
     8
 71
     3
 72
     8
 73
     4
 74
     0
 42
0.000000001
 43
0.0000000001
 40
0.0
 40
0.0
 40
0.0
 40
0.0
 40
1.0
 40
1.0
 40
1.0
 40
1.0
 10
257.3827084796424
 20
199.0305995123181
 30
0.0000000000000001
 10
257.3946839445059
 20
199.0569455350168
 30
0.0000000000000001
 10
257.4097982334184
 20
199.0833929138913
 30
0.0000000000000001
 10
257.4279437692984
 20
199.1100178227349
 30
0.0000000000000001
  0
SPLINE
  5
FA
330
1F
100
AcDbEntity
  8
1
  6
Continuous
 62
     1
370
    13
100
AcDbSpline
210
0.0
220
0.0
230
1.0
 70
     8
 71
     3
 72
     8
 73
     4
 74
     0
 42
0.000000001
 43
0.0000000001
 40
0.0
 40
0.0
 40
0.0
 40
0.0
 40
1.0
 40
1.0
 40
1.0
 40
1.0
 10
268.4048869650068
 20
199.1100178227375
 30
-0.0000000000000001
 10
268.4230325008884
 20
199.0833929138919
 30
-0.0000000000000001
 10
268.4381467898018
 20
199.0569455350156
 30
-0.0000000000000001
 10
268.4501222546657
 20
199.0305995123151
 30
-0.0000000000000001
  0
SPLINE
  5
FB
330
1F
100
AcDbEntity
  8
1
  6
Continuous
 62
     1
370
    13
100
AcDbSpline
210
0.0
220
0.0
230
1.0
 70
     8
 71
     3
 72
    29
 73
    25
 74
     0
 42
0.000000001
 43
0.0000000001
 40
0.0
 40
0.0
 40
0.0
 40
0.0
 40
0.1249999999999996
 40
0.1249999999999996
 40
0.2499999999999991
 40
0.2499999999999991
 40
0.3749999999999986
 40
0.3749999999999986
 40
0.4374999999999982
 40
0.4687499999999982
 40
0.4687499999999982
 40
0.4999999999999981
 40
0.4999999999999981
 40
0.6249999999999984
 40
0.6249999999999984
 40
0.7499999999999987
 40
0.7499999999999987
 40
0.874999999999999
 40
0.874999999999999
 40
0.906249999999999
 40
0.906249999999999
 40
0.9374999999999991
 40
0.9374999999999991
 40
1.0
 40
1.0
 40
1.0
 40
1.0
 10
257.4279437692985
 20
199.110017822735
 30
0.0000000000000001
 10
257.4490502922789
 20
199.1400177142715
 30
0.0000000000000001
 10
257.4749108713403
 20
199.1693287055863
 30
0.0000000000000001
 10
257.5380377485807
 20
199.2267230011165
 30
0.0000000000000001
 10
257.5752829807625
 20
199.2548212538462
 30
0.0000000000000001
 10
257.6623118013189
 20
199.3102018243722
 30
0.0000000000000001
 10
257.7120819691708
 20
199.3374865599654
 30
0.0000000000000001
 10
257.796845902833
 20
199.3780970483808
 30
0.0000000000000001
 10
257.8417544975695
 20
199.3983228949288
 30
0.0000000000000001
 10
257.890597879439
 20
199.4184823585595
 30
0.0000000000000001
 10
257.9240523036642
 20
199.4319130205795
 30
0.0000000000000001
 10
257.9412477140173
 20
199.4386322267557
 30
0.0000000000000001
 10
258.0292187834823
 20
199.4721134077101
 30
0.0000000000000001
 10
258.1056982645806
 20
199.4984390640791
 30
0.0000000000000001
 10
258.2708137184566
 20
199.5505210419154
 30
0.0000000000000002
 10
258.3594470380883
 20
199.5762763425188
 30
0.0000000000000002
 10
258.5490847032911
 20
199.627517963992
 30
-0.0000000000000003
 10
258.6500856682987
 20
199.653003315434
 30
-0.0000000000000003
 10
258.7844244675249
 20
199.684868916484
 30
-0.0000000000000003
 10
258.8116976293941
 20
199.6912424807491
 30
-0.0000000000000003
 10
258.8670681481855
 20
199.7039950106743
 30
-0.0000000000000002
 10
258.8951566021585
 20
199.7103717308741
 30
-0.0000000000000002
 10
258.9803697670823
 20
199.7294486300311
 30
-0.0000000000000002
 10
259.0385367882305
 20
199.7421176651609
 30
-0.0000000000000002
 10
259.0980768072959
 20
199.7547546648422
 30
-0.0000000000000002
  0
SPLINE
  5
FC
330
1F
100
AcDbEntity
  8
1
  6
Continuous
 62
     1
370
    13
100
AcDbSpline
210
0.0
220
0.0
230
1.0
 70
     8
 71
     3
 72
    42
 73
    38
 74
     0
 42
0.000000001
 43
0.0000000001
 40
0.0
 40
0.0
 40
0.0
 40
0.0
 40
0.1250000000000002
 40
0.1250000000000002
 40
0.2500000000000004
 40
0.2500000000000004
 40
0.2812500000000003
 40
0.2812500000000003
 40
0.3125000000000002
 40
0.3125000000000002
 40
0.3437500000000001
 40
0.3437500000000001
 40
0.3749999999999999
 40
0.3749999999999999
 40
0.4999999999999984
 40
0.4999999999999984
 40
0.5624999999999986
 40
0.5624999999999986
 40
0.6249999999999987
 40
0.6249999999999987
 40
0.6874999999999988
 40
0.6874999999999988
 40
0.7499999999999988
 40
0.7499999999999988
 40
0.8124999999999989
 40
0.8124999999999989
 40
0.843749999999999
 40
0.843749999999999
 40
0.874999999999999
 40
0.874999999999999
 40
0.9374999999999994
 40
0.9374999999999994
 40
0.9531249999999996
 40
0.9531249999999996
 40
0.9687499999999998
 40
0.9687499999999998
 40
1.0
 40
1.0
 40
1.0
 40
1.0
 10
260.2482820548506
 20
201.0199804371524
 30
-0.0000000000000002
 10
260.1364173069978
 20
201.1107914862322
 30
-0.0000000000000002
 10
260.0353629297616
 20
201.2056029131543
 30
-0.0000000000000002
 10
259.852608509282
 20
201.4022878034154
 30
-0.0000000000000002
 10
259.7709300135149
 20
201.5041742853715
 30
-0.0000000000000002
 10
259.6802992827187
 20
201.6354961088273
 30
-0.0000000000000002
 10
259.6627486910729
 20
201.6619585842377
 30
-0.0000000000000002
 10
259.6287901278003
 20
201.7152668420966
 30
-0.0000000000000002
 10
259.612362447997
 20
201.7421474224634
 30
-0.0000000000000002
 10
259.5807689993945
 20
201.7960592031172
 30
-0.0000000000000002
 10
259.5655998040314
 20
201.8230950304755
 30
-0.0000000000000002
 10
259.536590094412
 20
201.8770908954186
 30
-0.0000000000000002
 10
259.5227332060768
 20
201.9040781671035
 30
-0.0000000000000002
 10
259.4565589548671
 20
202.0389134127224
 30
-0.0000000000000002
 10
259.4135429014565
 20
202.146503046504
 30
-0.0000000000000002
 10
259.3618595317841
 20
202.30609502952
 30
-0.0000000000000002
 10
259.3467779754317
 20
202.3589856684723
 30
-0.0000000000000002
 10
259.3206022712901
 20
202.4637636802005
 30
-0.0000000000000002
 10
259.3094987691467
 20
202.5157564179212
 30
-0.0000000000000002
 10
259.291133000358
 20
202.6170283087533
 30
-0.0000000000000002
 10
259.2838335308853
 20
202.6664376266672
 30
0.0000000000000002
 10
259.2724587176183
 20
202.7619931082046
 30
0.0000000000000002
 10
259.2683862412209
 20
202.8081485274186
 30
0.0000000000000002
 10
259.2628408272443
 20
202.8959081372884
 30
0.0000000000000002
 10
259.2613731311815
 20
202.9375320821044
 30
0.0000000000000002
 10
259.2605024903941
 20
202.9949187402025
 30
0.0000000000000002
 10
259.2604320968981
 20
203.0131977114623
 30
0.0000000000000002
 10
259.2605902499205
 20
203.0476241521097
 30
0.0000000000000002
 10
259.260817527957
 20
203.0635832186815
 30
0.0000000000000002
 10
259.261659856823
 20
203.1069980263821
 30
0.0000000000000002
 10
259.2624498220457
 20
203.1300534839962
 30
0.0000000000000002
 10
259.2625763287488
 20
203.1483593247819
 30
0.0000000000000002
 10
259.2625570587964
 20
203.1514921438778
 30
0.0000000000000002
 10
259.2624000441622
 20
203.1565548396999
 30
0.0000000000000002
 10
259.2622625001137
 20
203.1584946812741
 30
0.0000000000000002
 10
259.2616343040435
 20
203.1624771196637
 30
0.0000000000000002
 10
259.2609264628185
 20
203.1626790753054
 30
0.0000000000000002
 10
259.2598437574269
 20
203.160297123444
 30
0.0000000000000002
  0
SPLINE
  5
FD
330
1F
100
AcDbEntity
  8
1
  6
Continuous
 62
     1
370
    13
100
AcDbSpline
210
0.0
220
0.0
230
1.0
 70
     8
 71
     3
 72
    42
 73
    38
 74
     0
 42
0.000000001
 43
0.0000000001
 40
0.0
 40
0.0
 40
0.0
 40
0.0
 40
0.0624999999999999
 40
0.0624999999999999
 40
0.09375
 40
0.09375
 40
0.1250000000000001
 40
0.1250000000000001
 40
0.1406250000000002
 40
0.1406250000000002
 40
0.1562500000000002
 40
0.1562500000000002
 40
0.1874999999999997
 40
0.1874999999999997
 40
0.2499999999999994
 40
0.2499999999999994
 40
0.3124999999999988
 40
0.3124999999999988
 40
0.3749999999999982
 40
0.3749999999999982
 40
0.4062499999999982
 40
0.4062499999999982
 40
0.4374999999999981
 40
0.4374999999999981
 40
0.4999999999999976
 40
0.4999999999999976
 40
0.6249999999999964
 40
0.6249999999999964
 40
0.6874999999999957
 40
0.6874999999999957
 40
0.7187499999999958
 40
0.7187499999999958
 40
0.7499999999999958
 40
0.7499999999999958
 40
0.8749999999999979
 40
0.8749999999999979
 40
1.0
 40
1.0
 40
1.0
 40
1.0
 10
266.5729869768798
 20
203.160297123444
 30
-0.0000000000000002
 10
266.5708087541076
 20
203.1650892135429
 30
-0.0000000000000002
 10
266.5701865819564
 20
203.159346164054
 30
-0.0000000000000002
 10
266.5703235571384
 20
203.1377830543369
 30
-0.0000000000000002
 10
266.5705442613055
 20
203.1284428719705
 30
-0.0000000000000002
 10
266.5711059970932
 20
203.105949247108
 30
-0.0000000000000002
 10
266.5714467407952
 20
203.0927665964786
 30
-0.0000000000000002
 10
266.5718733361123
 20
203.0707988064048
 30
-0.0000000000000002
 10
266.5720020132475
 20
203.0630889759367
 30
-0.0000000000000002
 10
266.5722060999523
 20
203.0470816776326
 30
-0.0000000000000002
 10
266.5722817112276
 20
203.0387783018581
 30
-0.0000000000000002
 10
266.5723980255393
 20
203.0130696508494
 30
-0.0000000000000002
 10
266.5723272804791
 20
202.9948697319112
 30
-0.0000000000000002
 10
266.5714609313934
 20
202.9377225045391
 30
-0.0000000000000002
 10
266.5700033557465
 20
202.8962612573114
 30
-0.0000000000000002
 10
266.5644950274739
 20
202.8088095967119
 30
-0.0000000000000002
 10
266.5604493746972
 20
202.762800088726
 30
-0.0000000000000002
 10
266.5491436858981
 20
202.6675141205165
 30
-0.0000000000000002
 10
266.5418864764369
 20
202.618228614263
 30
0.0000000000000002
 10
266.5281855942667
 20
202.5424434281662
 30
0.0000000000000002
 10
266.5231498665499
 20
202.5168692357203
 30
0.0000000000000002
 10
266.5120751931473
 20
202.4651678374621
 30
0.0000000000000002
 10
266.5060322439314
 20
202.4390272702512
 30
0.0000000000000002
 10
266.4863707471831
 20
202.3601309915306
 30
0.0000000000000002
 10
266.4712684034448
 20
202.3070854240481
 30
0.0000000000000002
 10
266.4195762603948
 20
202.1472501724982
 30
0.0000000000000002
 10
266.376616830486
 20
202.0397757281347
 30
0.0000000000000002
 10
266.2976381675495
 20
201.8786130398288
 30
0.0000000000000002
 10
266.2688851299854
 20
201.8248901428048
 30
0.0000000000000002
 10
266.2218318642225
 20
201.7444163134028
 30
0.0000000000000002
 10
266.2054929318621
 20
201.7176098103321
 30
0.0000000000000002
 10
266.1714506046987
 20
201.6640488696043
 30
0.0000000000000002
 10
266.1538129522024
 20
201.6374008579781
 30
0.0000000000000002
 10
266.0628431818425
 20
201.5053560744734
 30
0.0000000000000002
 10
265.980882716586
 20
201.4030432618384
 30
0.0000000000000002
 10
265.7976747392938
 20
201.2057812114132
 30
0.0000000000000002
 10
265.6964472454013
 20
201.1108189395319
 30
0.0000000000000002
 10
265.5845486794561
 20
201.0199804371524
 30
0.0000000000000002
  0
SPLINE
  5
FE
330
1F
100
AcDbEntity
  8
1
  6
Continuous
 62
     1
370
    13
100
AcDbSpline
210
0.0
220
0.0
230
1.0
 70
     8
 71
     3
 72
    50
 73
    46
 74
     0
 42
0.000000001
 43
0.0000000001
 40
0.0
 40
0.0
 40
0.0
 40
0.0
 40
0.0624999999999998
 40
0.0624999999999998
 40
0.1249999999999996
 40
0.1249999999999996
 40
0.1874999999999995
 40
0.1874999999999995
 40
0.2187499999999993
 40
0.2343749999999994
 40
0.2343749999999994
 40
0.2499999999999994
 40
0.2499999999999994
 40
0.3124999999999994
 40
0.3124999999999994
 40
0.3749999999999994
 40
0.3749999999999994
 40
0.4062499999999994
 40
0.4218749999999994
 40
0.4218749999999994
 40
0.4374999999999994
 40
0.4374999999999994
 40
0.4687499999999995
 40
0.4687499999999995
 40
0.4999999999999996
 40
0.4999999999999996
 40
0.5624999999999997
 40
0.5624999999999997
 40
0.6249999999999998
 40
0.6874999999999999
 40
0.6874999999999999
 40
0.7031249999999999
 40
0.7031249999999999
 40
0.71875
 40
0.7500000000000002
 40
0.7500000000000002
 40
0.8125000000000006
 40
0.8125000000000006
 40
0.8750000000000009
 40
0.8750000000000009
 40
0.9062500000000008
 40
0.9062500000000008
 40
0.9375000000000007
 40
0.9375000000000007
 40
1.0
 40
1.0
 40
1.0
 40
1.0
 10
265.5845486794561
 20
201.0199804371524
 30
0.0000000000000002
 10
265.4978286869121
 20
200.9379510050744
 30
0.0000000000000002
 10
265.4078061801809
 20
200.8604481988783
 30
0.0000000000000002
 10
265.2210302048275
 20
200.7142446286469
 30
0.0000000000000001
 10
265.1242774527303
 20
200.6455437051825
 30
0.0000000000000001
 10
264.9237633164154
 20
200.5169321688624
 30
0.0000000000000001
 10
264.8200034342985
 20
200.4570203333842
 30
0.0000000000000001
 10
264.658760663968
 20
200.3739299011459
 30
0.0000000000000001
 10
264.5767361778769
 20
200.3340822036887
 30
0.0000000000000001
 10
264.4925167141429
 20
200.2968480770525
 30
0.0000000000000001
 10
264.4358705412383
 20
200.2726161669676
 30
0.0000000000000001
 10
264.4072769583833
 20
200.2607885188159
 30
0.0000000000000001
 10
264.2639069797707
 20
200.2034934902159
 30
0.0000000000000001
 10
264.1472830157165
 20
200.1632560086087
 30
0.0000000000000001
 10
263.9101465239756
 20
200.0938280797629
 30
0.0000000000000001
 10
263.7896343718841
 20
200.0646370371617
 30
0.0000000000000001
 10
263.6058512620359
 20
200.029282042137
 30
0.0
 10
263.5132047780044
 20
200.0137165479004
 30
0.0
 10
263.4193952793515
 20
200.0013867333715
 30
0.0
 10
263.3565928231629
 20
199.993896475972
 30
0.0
 10
263.3250298497397
 20
199.9905134573594
 30
0.0
 10
263.2302426296465
 20
199.981502911952
 30
0.0
 10
263.1668893587585
 20
199.9770060166272
 30
0.0
 10
263.039857438801
 20
199.9710421003325
 30
0.0
 10
262.9765481296614
 20
199.9695938079344
 30
0.0
 10
262.7875090927581
 20
199.9697303553667
 30
0.0
 10
262.6625393330355
 20
199.9757784333102
 30
0.0
 10
262.4146362409304
 20
199.9993953953171
 30
0.0
 10
262.1687700140901
 20
200.034536013872
 30
0.0
 10
261.9269339144821
 20
200.0926865430085
 30
-0.0000000000000001
 10
261.7770640772829
 20
200.1364380702779
 30
-0.0000000000000001
 10
261.7471535567974
 20
200.1455616663171
 30
-0.0000000000000001
 10
261.6878753775756
 20
200.1644217108611
 30
-0.0000000000000001
 10
261.599613615947
 20
200.1936764308341
 30
-0.0000000000000001
 10
261.5132743961873
 20
200.225775918493
 30
-0.0000000000000001
 10
261.3430629817153
 20
200.2936704660886
 30
-0.0000000000000001
 10
261.2328726050229
 20
200.3438514993721
 30
-0.0000000000000001
 10
261.018697769356
 20
200.4537830325101
 30
-0.0000000000000001
 10
260.9147144810609
 20
200.513534730451
 30
-0.0000000000000001
 10
260.7632463156739
 20
200.6103588176511
 30
-0.0000000000000001
 10
260.7135092113494
 20
200.6438350810025
 30
-0.0000000000000001
 10
260.6155277943963
 20
200.7132192049769
 30
-0.0000000000000001
 10
260.5672256363973
 20
200.7491775595175
 30
-0.0000000000000001
 10
260.4255205504098
 20
200.8599803227035
 30
-0.0000000000000002
 10
260.3350162805342
 20
200.9379375417851
 30
-0.0000000000000002
 10
260.2482820548506
 20
201.0199804371524
 30
-0.0000000000000002
  0
SPLINE
  5
FF
330
1F
100
AcDbEntity
  8
1
  6
Continuous
 62
     1
370
    13
100
AcDbSpline
210
0.0
220
0.0
230
1.0
 70
     8
 71
     3
 72
    25
 73
    21
 74
     0
 42
0.000000001
 43
0.0000000001
 40
0.0
 40
0.0
 40
0.0
 40
0.0
 40
0.1250000000000001
 40
0.1250000000000001
 40
0.2500000000000001
 40
0.2500000000000001
 40
0.3750000000000002
 40
0.3750000000000002
 40
0.4062500000000002
 40
0.4062500000000002
 40
0.4375000000000003
 40
0.5000000000000004
 40
0.5000000000000004
 40
0.7500000000000004
 40
0.7500000000000004
 40
0.8125000000000003
 40
0.8125000000000003
 40
0.8750000000000002
 40
0.8750000000000002
 40
1.0
 40
1.0
 40
1.0
 40
1.0
 10
266.7347539270109
 20
199.7547546648422
 30
0.0000000000000002
 10
266.8535252162163
 20
199.7295461955235
 30
0.0000000000000002
 10
266.9660811540027
 20
199.7043725021024
 30
0.0000000000000002
 10
267.1793867586502
 20
199.6538235465054
 30
0.0000000000000003
 10
267.2801330819204
 20
199.6284492274643
 30
0.0000000000000003
 10
267.470047888762
 20
199.5772210711349
 30
-0.0000000000000002
 10
267.5592145646705
 20
199.5513682283102
 30
-0.0000000000000002
 10
267.6633848895843
 20
199.518555456818
 30
-0.0000000000000002
 10
267.6838512108666
 20
199.5119683008025
 30
-0.0000000000000002
 10
267.7238560386182
 20
199.4988042247781
 30
-0.0000000000000001
 10
267.7825501971374
 20
199.4790489188161
 30
-0.0000000000000001
 10
267.8373679804721
 20
199.4592426524661
 30
-0.0000000000000001
 10
268.0117123190066
 20
199.3930027458746
 30
-0.0000000000000001
 10
268.124411258456
 20
199.3393351568128
 30
-0.0000000000000001
 10
268.2345424718777
 20
199.2695101852395
 30
-0.0000000000000001
 10
268.2550464122015
 20
199.2553920454526
 30
-0.0000000000000001
 10
268.2928717295413
 20
199.2269851662029
 30
-0.0000000000000001
 10
268.310222624279
 20
199.21267950875
 30
0.0000000000000001
 10
268.3578905414031
 20
199.169385073358
 30
-0.0000000000000001
 10
268.383791211617
 20
199.1400024068467
 30
-0.0000000000000001
 10
268.404886965007
 20
199.1100178227368
 30
-0.0000000000000001
  0
SPLINE
  5
100
330
1F
100
AcDbEntity
  8
1
  6
Continuous
 62
     1
370
    13
100
AcDbSpline
210
0.0
220
0.0
230
1.0
 70
     8
 71
     3
 72
    44
 73
    40
 74
     0
 42
0.000000001
 43
0.0000000001
 40
0.0
 40
0.0
 40
0.0
 40
0.0
 40
0.0625000000000002
 40
0.0625000000000002
 40
0.0937500000000004
 40
0.0937500000000004
 40
0.1250000000000007
 40
0.1250000000000007
 40
0.1875000000000007
 40
0.1875000000000007
 40
0.2500000000000007
 40
0.2500000000000007
 40
0.2812500000000008
 40
0.2968750000000008
 40
0.3125000000000008
 40
0.3125000000000008
 40
0.3750000000000008
 40
0.4375000000000007
 40
0.5000000000000007
 40
0.5000000000000007
 40
0.5312500000000007
 40
0.5312500000000007
 40
0.5625000000000007
 40
0.5625000000000007
 40
0.6250000000000004
 40
0.6250000000000004
 40
0.6875000000000003
 40
0.6875000000000003
 40
0.7500000000000003
 40
0.7500000000000003
 40
0.7812500000000002
 40
0.7812500000000002
 40
0.8125000000000001
 40
0.8125000000000001
 40
0.875
 40
0.875
 40
0.9375
 40
0.9375
 40
1.0
 40
1.0
 40
1.0
 40
1.0
 10
260.6188561260038
 20
202.2285600278293
 30
-0.0000000000000001
 10
260.6978384563369
 20
202.1726838250332
 30
-0.0000000000000001
 10
260.7796508888568
 20
202.1204766527995
 30
-0.0000000000000001
 10
260.9067035811907
 20
202.0472548331103
 30
-0.0000000000000001
 10
260.9498075318323
 20
202.0236868914263
 30
-0.0000000000000001
 10
261.0369292380627
 20
201.9784852812091
 30
-0.0000000000000001
 10
261.0810107583217
 20
201.9568129437425
 30
-0.0000000000000001
 10
261.2148155729089
 20
201.8944716361041
 30
-0.0000000000000001
 10
261.3060962947439
 20
201.8564704524304
 30
-0.0000000000000001
 10
261.4928718464964
 20
201.7872130566818
 30
-0.0000000000000001
 10
261.5883663937996
 20
201.7559577316436
 30
-0.0000000000000001
 10
261.7348834471121
 20
201.7140376974493
 30
-0.0000000000000001
 10
261.8089619195927
 20
201.6943211482528
 30
-0.0000000000000001
 10
261.9094161559617
 20
201.6705275331425
 30
-0.0000000000000001
 10
261.9602151994692
 20
201.6594692044459
 30
-0.0000000000000001
 10
262.0872453907271
 20
201.633012446929
 30
-0.0000000000000001
 10
262.2917882301799
 20
201.5980170021486
 30
0.0
 10
262.6024286520088
 20
201.5666021215857
 30
0.0
 10
262.8120877299687
 20
201.559556519924
 30
0.0
 10
262.9703202033479
 20
201.5595956740923
 30
0.0
 10
263.0232584617713
 20
201.5604987447179
 30
0.0
 10
263.1293522142843
 20
201.564120179344
 30
0.0
 10
263.18210367709
 20
201.5668237396468
 30
0.0
 10
263.3394938291482
 20
201.5775577402961
 30
0.0
 10
263.4432698524112
 20
201.5882044129269
 30
0.0
 10
263.6485965413806
 20
201.6163655012998
 30
0.0
 10
263.750147030296
 20
201.6338800776945
 30
0.0000000000000001
 10
263.9510499719746
 20
201.6758901222091
 30
0.0000000000000001
 10
264.0504024220702
 20
201.7003847041445
 30
0.0000000000000001
 10
264.1977689769624
 20
201.7426233835576
 30
0.0000000000000001
 10
264.2466977521693
 20
201.7576531484752
 30
0.0000000000000001
 10
264.3430175135409
 20
201.7892790961425
 30
0.0000000000000001
 10
264.390518691849
 20
201.8059032481503
 30
0.0000000000000001
 10
264.53110137024
 20
201.8582128298549
 30
0.0000000000000001
 10
264.6222657082722
 20
201.8963278789869
 30
0.0000000000000001
 10
264.7996772917197
 20
201.9792397577924
 30
0.0000000000000001
 10
264.8859242052959
 20
202.02403538529
 30
0.0000000000000001
 10
265.0535829951031
 20
202.1207598204874
 30
0.0000000000000001
 10
265.1349950880631
 20
202.1726858130391
 30
0.0000000000000001
 10
265.213974608303
 20
202.2285600278293
 30
0.0000000000000001
  0
SPLINE
  5
101
330
1F
100
AcDbEntity
  8
1
  6
Continuous
 62
     1
370
    13
100
AcDbSpline
210
0.0
220
0.0
230
1.0
 70
     8
 71
     3
 72
    38
 73
    34
 74
     0
 42
0.000000001
 43
0.0000000001
 40
0.0
 40
0.0
 40
0.0
 40
0.0
 40
0.0624999999999993
 40
0.0624999999999993
 40
0.1249999999999986
 40
0.1249999999999986
 40
0.1874999999999979
 40
0.1874999999999979
 40
0.2187499999999977
 40
0.2187499999999977
 40
0.2499999999999975
 40
0.2499999999999975
 40
0.374999999999997
 40
0.374999999999997
 40
0.4999999999999964
 40
0.4999999999999964
 40
0.5312499999999961
 40
0.5312499999999961
 40
0.5624999999999958
 40
0.5624999999999958
 40
0.624999999999996
 40
0.624999999999996
 40
0.7499999999999971
 40
0.7499999999999971
 40
0.8124999999999977
 40
0.8124999999999977
 40
0.8437499999999979
 40
0.8437499999999979
 40
0.874999999999998
 40
0.874999999999998
 40
0.937499999999999
 40
0.937499999999999
 40
1.0
 40
1.0
 40
1.0
 40
1.0
 10
265.213974608303
 20
202.2285600278293
 30
0.0000000000000001
 10
265.282389790648
 20
202.2769604812841
 30
0.0000000000000001
 10
265.3473613823068
 20
202.3256754895831
 30
0.0000000000000001
 10
265.4709242497393
 20
202.423580238785
 30
0.0000000000000002
 10
265.529513689276
 20
202.4727703881061
 30
0.0000000000000002
 10
265.6406555635764
 20
202.5714599795796
 30
0.0000000000000002
 10
265.693206806465
 20
202.6209599145753
 30
0.0000000000000002
 10
265.7676779481444
 20
202.6952989006955
 30
0.0000000000000002
 10
265.7917749212135
 20
202.72009316911
 30
0.0000000000000002
 10
265.8385360375627
 20
202.7696832923612
 30
0.0000000000000002
 10
265.8612169506237
 20
202.7944981587689
 30
0.0000000000000002
 10
265.9709049385619
 20
202.9183017659734
 30
0.0000000000000002
 10
266.0444995073719
 20
203.0138335935533
 30
0.0000000000000002
 10
266.1685860772795
 20
203.1966003065986
 30
0.0000000000000002
 10
266.2190260551468
 20
203.283854218144
 30
0.0000000000000002
 10
266.2699241624543
 20
203.3860929393537
 30
0.0000000000000002
 10
266.2794965675676
 20
203.4062033986086
 30
0.0000000000000002
 10
266.2973426330586
 20
203.4453574736561
 30
0.0000000000000002
 10
266.3056382243484
 20
203.4644436804907
 30
0.0000000000000002
 10
266.3287874382304
 20
203.520178972254
 30
0.0000000000000002
 10
266.3419050248114
 20
203.5553094580881
 30
0.0000000000000002
 10
266.3753905352089
 20
203.6540519324375
 30
0.0000000000000002
 10
266.3898896509706
 20
203.7111038953091
 30
0.0000000000000002
 10
266.4039836186299
 20
203.7797667902462
 30
0.0000000000000002
 10
266.4074052415412
 20
203.7998129701509
 30
0.0000000000000002
 10
266.4111387975046
 20
203.8249541524895
 30
0.0000000000000002
 10
266.4121514583236
 20
203.8325228322637
 30
0.0000000000000002
 10
266.4137873249197
 20
203.8458069650478
 30
0.0000000000000002
 10
266.4144124740581
 20
203.851531938246
 30
0.0000000000000002
 10
266.415851181763
 20
203.8658621993281
 30
0.0000000000000002
 10
266.4162332174229
 20
203.8716163714626
 30
0.0000000000000002
 10
266.4164910762167
 20
203.8751360114063
 30
0.0000000000000002
 10
266.416368747378
 20
203.8728972229316
 30
0.0000000000000002
 10
266.4162239973442
 20
203.8665944082205
 30
0.0000000000000002
  0
SPLINE
  5
102
330
1F
100
AcDbEntity
  8
1
  6
Continuous
 62
     1
370
    13
100
AcDbSpline
210
0.0
220
0.0
230
1.0
 70
     8
 71
     3
 72
    42
 73
    38
 74
     0
 42
0.000000001
 43
0.0000000001
 40
0.0
 40
0.0
 40
0.0
 40
0.0
 40
0.0624999999999995
 40
0.0624999999999995
 40
0.124999999999999
 40
0.124999999999999
 40
0.1874999999999985
 40
0.1874999999999985
 40
0.2187499999999983
 40
0.2187499999999983
 40
0.249999999999998
 40
0.249999999999998
 40
0.3749999999999961
 40
0.3749999999999961
 40
0.4374999999999954
 40
0.4374999999999954
 40
0.4687499999999954
 40
0.4687499999999954
 40
0.4999999999999953
 40
0.4999999999999953
 40
0.6249999999999959
 40
0.6249999999999959
 40
0.6874999999999962
 40
0.6874999999999962
 40
0.7031249999999963
 40
0.7031249999999963
 40
0.7187499999999964
 40
0.7187499999999964
 40
0.7499999999999973
 40
0.7499999999999973
 40
0.8749999999999993
 40
0.8749999999999993
 40
0.9062499999999993
 40
0.9062499999999993
 40
0.9374999999999992
 40
0.9374999999999992
 40
1.0
 40
1.0
 40
1.0
 40
1.0
 10
259.4166067369627
 20
203.8665944082209
 30
-0.0000000000000002
 10
259.4164623641771
 20
203.8728807965079
 30
-0.0000000000000002
 10
259.4163406419617
 20
203.8751195914658
 30
-0.0000000000000002
 10
259.4165939373445
 20
203.8716681908018
 30
-0.0000000000000002
 10
259.4169708478732
 20
203.8659823414048
 30
-0.0000000000000002
 10
259.4188591185634
 20
203.8471081531781
 30
-0.0000000000000002
 10
259.4203721465699
 20
203.8339243017764
 30
-0.0000000000000002
 10
259.424066002975
 20
203.808928626825
 30
-0.0000000000000002
 10
259.4255357751484
 20
203.7997303159654
 30
-0.0000000000000002
 10
259.4290243987537
 20
203.7798216928816
 30
-0.0000000000000002
 10
259.431045234448
 20
203.7690974588222
 30
-0.0000000000000002
 10
259.4427479881946
 20
203.711893300852
 30
-0.0000000000000002
 10
259.4572240942156
 20
203.6547758402729
 30
-0.0000000000000002
 10
259.4907295104438
 20
203.5558452717023
 30
-0.0000000000000002
 10
259.5038628573649
 20
203.5206368243432
 30
-0.0000000000000002
 10
259.5270552797279
 20
203.4647625456567
 30
-0.0000000000000002
 10
259.5353850487054
 20
203.445591024985
 30
-0.0000000000000002
 10
259.5532132731351
 20
203.4064612757527
 30
-0.0000000000000002
 10
259.5627069375783
 20
203.3865099314482
 30
-0.0000000000000002
 10
259.6132220922732
 20
203.2849615828272
 30
-0.0000000000000002
 10
259.6633504938839
 20
203.1980569927283
 30
-0.0000000000000002
 10
259.7562631909919
 20
203.0609983326056
 30
-0.0000000000000002
 10
259.7901933703707
 20
203.0141818433786
 30
-0.0000000000000002
 10
259.8367195523517
 20
202.9543501437516
 30
-0.0000000000000002
 10
259.8462308036619
 20
202.9423180560038
 30
-0.0000000000000002
 10
259.865677210025
 20
202.9181241661459
 30
-0.0000000000000002
 10
259.8756234195757
 20
202.9059493351756
 30
-0.0000000000000002
 10
259.9059846910058
 20
202.8693898988501
 30
-0.0000000000000002
 10
259.9269468191536
 20
202.8449381711866
 30
-0.0000000000000002
 10
260.035435359553
 20
202.7223667163211
 30
-0.0000000000000002
 10
260.1339305364321
 20
202.6233347323701
 30
-0.0000000000000002
 10
260.2733845855168
 20
202.4993122195487
 30
-0.0000000000000002
 10
260.3020966111592
 20
202.4744946120176
 30
-0.0000000000000002
 10
260.3612266814961
 20
202.4248527773413
 30
-0.0000000000000002
 10
260.3916977750017
 20
202.3999868017442
 30
-0.0000000000000002
 10
260.4853900436638
 20
202.3257155034992
 30
-0.0000000000000001
 10
260.5506668292904
 20
202.2768006780558
 30
-0.0000000000000001
 10
260.6188561260038
 20
202.2285600278293
 30
-0.0000000000000001
  0
SPLINE
  5
103
330
1F
100
AcDbEntity
  8
1
  6
Continuous
 62
     1
370
    18
100
AcDbSpline
210
0.0
220
0.0
230
1.0
 70
     8
 71
     3
 72
     9
 73
     5
 74
     0
 42
0.000000001
 43
0.0000000001
 40
0.0
 40
0.0
 40
0.0
 40
0.0
 40
0.0353329687017064
 40
1.0
 40
1.0
 40
1.0
 40
1.0
 10
116.8105178045293
 20
55.14667608677883
 30
-0.0000000000000002
 10
116.8142020021282
 20
55.14675058464797
 30
-0.0000000000000002
 10
116.918531051196
 20
55.14882379254736
 30
-0.0000000000000002
 10
117.0243993405109
 20
55.1499134536793
 30
-0.0000000000000002
 10
117.1288638081249
 20
55.14993345923303
 30
-0.0000000000000002
  0
SPLINE
  5
104
330
1F
100
AcDbEntity
  8
1
  6
Continuous
 62
     1
370
    18
100
AcDbSpline
210
0.0
220
0.0
230
1.0
 70
     8
 71
     3
 72
     9
 73
     5
 74
     0
 42
0.000000001
 43
0.0000000001
 40
0.0
 40
0.0
 40
0.0
 40
0.0
 40
0.3813818675617343
 40
1.0
 40
1.0
 40
1.0
 40
1.0
 10
123.2631379720091
 20
55.14958968791367
 30
-0.0000000000000002
 10
123.3023259281096
 20
55.14970711611509
 30
-0.0000000000000002
 10
123.4043070046977
 20
55.14962928227286
 30
-0.0000000000000002
 10
123.5045153714949
 20
55.14849971132724
 30
-0.0000000000000002
 10
123.5656987596532
 20
55.14741923621071
 30
-0.0000000000000002
  0
SPLINE
  5
105
330
1F
100
AcDbEntity
  8
1
  6
Continuous
 62
     1
370
    13
100
AcDbSpline
210
0.0
220
0.0
230
1.0
 70
     8
 71
     3
 72
     8
 73
     4
 74
     0
 42
0.000000001
 43
0.0000000001
 40
0.0
 40
0.0
 40
0.0
 40
0.0
 40
1.0
 40
1.0
 40
1.0
 40
1.0
 10
118.6111622940804
 20
58.75895062283947
 30
-0.0000000000000004
 10
118.7690157370212
 20
58.76853749979564
 30
-0.0000000000000004
 10
118.9270128687228
 20
58.77341604744903
 30
-0.0000000000000004
 10
119.0851588839074
 20
58.7734160474494
 30
-0.0000000000000004
  0
SPLINE
  5
106
330
1F
100
AcDbEntity
  8
1
  6
Continuous
 62
     1
370
    13
100
AcDbSpline
210
0.0
220
0.0
230
1.0
 70
     8
 71
     3
 72
     8
 73
     4
 74
     0
 42
0.000000001
 43
0.0000000001
 40
0.0
 40
0.0
 40
0.0
 40
0.0
 40
1.0
 40
1.0
 40
1.0
 40
1.0
 10
121.7427117966893
 20
44.53418502591621
 30
0.0000000000000004
 10
121.5848583537446
 20
44.52459814895956
 30
0.0000000000000004
 10
121.4268612220391
 20
44.51971960130592
 30
0.0000000000000004
 10
121.2687152068505
 20
44.51971960130554
 30
0.0000000000000004
  0
SPLINE
  5
107
330
1F
100
AcDbEntity
  8
1
  6
Continuous
 62
     1
370
    13
100
AcDbSpline
210
0.0
220
0.0
230
1.0
 70
     8
 71
     3
 72
     8
 73
     4
 74
     0
 42
0.000000001
 43
0.0000000001
 40
0.0
 40
0.0
 40
0.0
 40
0.0
 40
1.0
 40
1.0
 40
1.0
 40
1.0
 10
121.2687152068351
 20
58.77341604744934
 30
-0.0000000000000004
 10
121.4268612220285
 20
58.77341604744935
 30
-0.0000000000000004
 10
121.5848583537388
 20
58.76853749979579
 30
-0.0000000000000004
 10
121.7427117966883
 20
58.7589506228388
 30
-0.0000000000000004
  0
SPLINE
  5
108
330
1F
100
AcDbEntity
  8
1
  6
Continuous
 62
     1
370
    13
100
AcDbSpline
210
0.0
220
0.0
230
1.0
 70
     8
 71
     3
 72
     8
 73
     4
 74
     0
 42
0.000000001
 43
0.0000000001
 40
0.0
 40
0.0
 40
0.0
 40
0.0
 40
1.0
 40
1.0
 40
1.0
 40
1.0
 10
119.0851588839225
 20
44.51971960130561
 30
0.0000000000000004
 10
118.9270128687291
 20
44.5197196013056
 30
0.0000000000000004
 10
118.7690157370188
 20
44.52459814895915
 30
0.0000000000000004
 10
118.6111622940693
 20
44.53418502591614
 30
0.0000000000000004
  0
SPLINE
  5
109
330
1F
100
AcDbEntity
  8
1
  6
Continuous
 62
     1
370
    13
100
AcDbSpline
210
0.0
220
0.0
230
1.0
 70
     8
 71
     3
 72
     8
 73
     4
 74
     0
 42
0.000000001
 43
0.0000000001
 40
0.0
 40
0.0
 40
0.0
 40
0.0
 40
1.0
 40
1.0
 40
1.0
 40
1.0
 10
119.0851588839087
 20
57.18027471188843
 30
-0.0000000000000003
 10
118.9596341481
 20
57.16829924702501
 30
-0.0000000000000003
 10
118.8345091095629
 20
57.1531849581125
 30
-0.0000000000000003
 10
118.7097869206825
 20
57.13503942223244
 30
-0.0000000000000003
  0
SPLINE
  5
10A
330
1F
100
AcDbEntity
  8
1
  6
Continuous
 62
     1
370
    13
100
AcDbSpline
210
0.0
220
0.0
230
1.0
 70
     8
 71
     3
 72
     8
 73
     4
 74
     0
 42
0.000000001
 43
0.0000000001
 40
0.0
 40
0.0
 40
0.0
 40
0.0
 40
1.0
 40
1.0
 40
1.0
 40
1.0
 10
121.6440871700839
 20
57.13503942223087
 30
-0.0000000000000003
 10
121.5193649811946
 20
57.15318495811248
 30
-0.0000000000000003
 10
121.3942399426528
 20
57.16829924702593
 30
-0.0000000000000003
 10
121.2687152068351
 20
57.18027471188981
 30
-0.0000000000000003
  0
SPLINE
  5
10B
330
1F
100
AcDbEntity
  8
1
  6
Continuous
 62
     1
370
    13
100
AcDbSpline
210
0.0
220
0.0
230
1.0
 70
     8
 71
     3
 72
     8
 73
     4
 74
     0
 42
0.000000001
 43
0.0000000001
 40
0.0
 40
0.0
 40
0.0
 40
0.0
 40
1.0
 40
1.0
 40
1.0
 40
1.0
 10
121.2687152068492
 20
46.11286093686651
 30
0.0000000000000003
 10
121.394239942661
 20
46.12483640173024
 30
0.0000000000000003
 10
121.5193649812012
 20
46.13995069064323
 30
0.0000000000000003
 10
121.6440871700847
 20
46.1580962265239
 30
0.0000000000000003
  0
SPLINE
  5
10C
330
1F
100
AcDbEntity
  8
1
  6
Continuous
 62
     1
370
    13
100
AcDbSpline
210
0.0
220
0.0
230
1.0
 70
     8
 71
     3
 72
     8
 73
     4
 74
     0
 42
0.000000001
 43
0.0000000001
 40
0.0
 40
0.0
 40
0.0
 40
0.0
 40
1.0
 40
1.0
 40
1.0
 40
1.0
 10
118.7097869206737
 20
46.15809622652408
 30
0.0000000000000003
 10
118.8345091095629
 20
46.13995069064246
 30
0.0000000000000003
 10
118.9596341481048
 20
46.12483640172901
 30
0.0000000000000003
 10
119.0851588839225
 20
46.11286093686513
 30
0.0000000000000003
  0
SPLINE
  5
10D
330
1F
100
AcDbEntity
  8
1
  6
Continuous
 62
     1
370
    13
100
AcDbSpline
210
0.0
220
0.0
230
1.0
 70
     8
 71
     3
 72
    28
 73
    24
 74
     0
 42
0.000000001
 43
0.0000000001
 40
0.0
 40
0.0
 40
0.0
 40
0.0
 40
0.1250000000000002
 40
0.1250000000000002
 40
0.1875000000000003
 40
0.1875000000000003
 40
0.2187500000000004
 40
0.2187500000000004
 40
0.2500000000000005
 40
0.3750000000000003
 40
0.3750000000000003
 40
0.5000000000000002
 40
0.5000000000000002
 40
0.5625000000000004
 40
0.5625000000000004
 40
0.5937500000000004
 40
0.5937500000000004
 40
0.6250000000000006
 40
0.6250000000000006
 40
0.7500000000000003
 40
0.8750000000000002
 40
0.8750000000000002
 40
1.0
 40
1.0
 40
1.0
 40
1.0
 10
121.7427117966883
 20
58.7589506228388
 30
-0.0000000000000004
 10
121.9548564584141
 20
58.74606648974012
 30
-0.0000000000000004
 10
122.1657403099801
 20
58.7240634152415
 30
-0.0000000000000004
 10
122.4799739899215
 20
58.67592749009561
 30
-0.0000000000000004
 10
122.5843713640096
 20
58.65737112342056
 30
-0.0000000000000004
 10
122.7404284053952
 20
58.62563805669387
 30
-0.0000000000000004
 10
122.7924093246938
 20
58.61439847719363
 30
-0.0000000000000004
 10
122.8958941843601
 20
58.59066727989008
 30
-0.0000000000000004
 10
123.1533680498597
 20
58.52822511848749
 30
-0.0000000000000004
 10
123.40467192533
 20
58.4502660065511
 30
-0.0000000000000004
 10
123.7988441278035
 20
58.30562845852776
 30
-0.0000000000000004
 10
123.9919759339249
 20
58.22336500042256
 30
-0.0000000000000004
 10
124.2756001722255
 20
58.08469559940226
 30
-0.0000000000000004
 10
124.3691277541191
 20
58.03592277546413
 30
-0.0000000000000004
 10
124.5078639570452
 20
57.95885243199984
 30
-0.0000000000000004
 10
124.5538500343882
 20
57.93251014271768
 30
-0.0000000000000004
 10
124.6452961372583
 20
57.87850259280906
 30
-0.0000000000000004
 10
124.6907558880357
 20
57.85083423360297
 30
-0.0000000000000004
 10
124.915392562383
 20
57.70999452578229
 30
-0.0000000000000004
 10
125.2599981395306
 20
57.46744414556652
 30
-0.0000000000000004
 10
125.5755980404132
 20
57.19120087236525
 30
-0.0000000000000003
 10
125.8765107127687
 20
56.89789696542819
 30
-0.0000000000000003
 10
126.0196267203275
 20
56.74271851168502
 30
-0.0000000000000003
 10
126.1550364430494
 20
56.57858846419342
 30
-0.0000000000000003
  0
SPLINE
  5
10E
330
1F
100
AcDbEntity
  8
1
  6
Continuous
 62
     1
370
    13
100
AcDbSpline
210
0.0
220
0.0
230
1.0
 70
     8
 71
     3
 72
    28
 73
    24
 74
     0
 42
0.000000001
 43
0.0000000001
 40
0.0
 40
0.0
 40
0.0
 40
0.0
 40
0.0624999999999998
 40
0.0624999999999998
 40
0.0937499999999996
 40
0.0937499999999996
 40
0.1249999999999993
 40
0.1249999999999993
 40
0.249999999999999
 40
0.249999999999999
 40
0.3749999999999987
 40
0.4999999999999984
 40
0.4999999999999984
 40
0.5312499999999984
 40
0.5312499999999984
 40
0.5624999999999984
 40
0.6249999999999986
 40
0.6249999999999986
 40
0.749999999999999
 40
0.749999999999999
 40
0.8749999999999994
 40
0.8749999999999994
 40
1.0
 40
1.0
 40
1.0
 40
1.0
 10
114.1988376477082
 20
56.57858846419341
 30
-0.0000000000000003
 10
114.2667570681978
 20
56.66091355493636
 30
-0.0000000000000003
 10
114.3368691694676
 20
56.74128243419837
 30
-0.0000000000000003
 10
114.4453021107471
 20
56.85892305439156
 30
-0.0000000000000003
 10
114.4820213525389
 20
56.89768194237754
 30
-0.0000000000000003
 10
114.5564035478823
 20
56.97408043014092
 30
-0.0000000000000003
 10
114.5940237320163
 20
57.01167805466596
 30
-0.0000000000000003
 10
114.7842355279847
 20
57.1967065326721
 30
-0.0000000000000003
 10
114.9431400762119
 20
57.33528605882118
 30
-0.0000000000000003
 10
115.2738684941467
 20
57.59433101393603
 30
-0.0000000000000004
 10
115.6175207563614
 20
57.83525553047944
 30
-0.0000000000000004
 10
115.9868275612384
 20
58.04020997849535
 30
-0.0000000000000004
 10
116.2258568316433
 20
58.15679179097562
 30
-0.0000000000000004
 10
116.2741538970437
 20
58.17956616228803
 30
-0.0000000000000004
 10
116.3710494861447
 20
58.22371091791835
 30
-0.0000000000000004
 10
116.5169070086721
 20
58.28786056178353
 30
-0.0000000000000004
 10
116.6642793586145
 20
58.34591868049147
 30
-0.0000000000000004
 10
116.9609850717716
 20
58.45414916038543
 30
-0.0000000000000004
 10
117.1614007665402
 20
58.51579972326088
 30
-0.0000000000000004
 10
117.5672375466581
 20
58.61897283816217
 30
-0.0000000000000004
 10
117.7726626025716
 20
58.66047942349017
 30
-0.0000000000000004
 10
118.1883511004269
 20
58.72403615315405
 30
-0.0000000000000004
 10
118.398625392081
 20
58.74604266790254
 30
-0.0000000000000004
 10
118.6111622940804
 20
58.7589506228395
 30
-0.0000000000000004
  0
SPLINE
  5
10F
330
1F
100
AcDbEntity
  8
1
  6
Continuous
 62
     1
370
    13
100
AcDbSpline
210
0.0
220
0.0
230
1.0
 70
     8
 71
     3
 72
    28
 73
    24
 74
     0
 42
0.000000001
 43
0.0000000001
 40
0.0
 40
0.0
 40
0.0
 40
0.0
 40
0.0625000000000012
 40
0.0625000000000012
 40
0.0937500000000016
 40
0.0937500000000016
 40
0.1250000000000021
 40
0.1250000000000021
 40
0.2500000000000023
 40
0.2500000000000023
 40
0.3750000000000026
 40
0.5000000000000029
 40
0.5000000000000029
 40
0.5312500000000028
 40
0.5312500000000028
 40
0.5625000000000028
 40
0.6250000000000024
 40
0.6250000000000024
 40
0.7500000000000017
 40
0.7500000000000017
 40
0.8750000000000008
 40
0.8750000000000008
 40
1.0
 40
1.0
 40
1.0
 40
1.0
 10
126.1550364430494
 20
46.71454718456153
 30
0.0000000000000003
 10
126.08711702256
 20
46.63222209381878
 30
0.0000000000000003
 10
126.0170049212903
 20
46.55185321455696
 30
0.0000000000000003
 10
125.9085719800111
 20
46.43421259436402
 30
0.0000000000000003
 10
125.8718527382194
 20
46.39545370637812
 30
0.0000000000000003
 10
125.7974705428762
 20
46.31905521861494
 30
0.0000000000000003
 10
125.7598503587423
 20
46.28145759408999
 30
0.0000000000000003
 10
125.5696385627744
 20
46.09642911608427
 30
0.0000000000000003
 10
125.4107340145476
 20
45.95784958993548
 30
0.0000000000000003
 10
125.0800055966138
 20
45.69880463482107
 30
0.0000000000000004
 10
124.7363533344
 20
45.457880118278
 30
0.0000000000000004
 10
124.3670465295241
 20
45.25292567026221
 30
0.0000000000000004
 10
124.1280172591198
 20
45.13634385778197
 30
0.0000000000000004
 10
124.0797201937196
 20
45.11356948646956
 30
0.0000000000000004
 10
123.9828246046188
 20
45.06942473083926
 30
0.0000000000000004
 10
123.8369670820918
 20
45.00527508697407
 30
0.0000000000000004
 10
123.6895947321499
 20
44.9472169682661
 30
0.0000000000000004
 10
123.3928890189937
 20
44.83898648837204
 30
0.0000000000000004
 10
123.1924733242256
 20
44.77733592549648
 30
0.0000000000000004
 10
122.7866365441088
 20
44.67416281059485
 30
0.0000000000000004
 10
122.5812114881959
 20
44.63265622526664
 30
0.0000000000000004
 10
122.1655229903417
 20
44.56909949560225
 30
0.0000000000000004
 10
121.9552486986882
 20
44.54709298085345
 30
0.0000000000000004
 10
121.7427117966893
 20
44.53418502591618
 30
0.0000000000000004
  0
SPLINE
  5
110
330
1F
100
AcDbEntity
  8
1
  6
Continuous
 62
     1
370
    13
100
AcDbSpline
210
0.0
220
0.0
230
1.0
 70
     8
 71
     3
 72
     8
 73
     4
 74
     0
 42
0.000000001
 43
0.0000000001
 40
0.0
 40
0.0
 40
0.0
 40
0.0
 40
1.0
 40
1.0
 40
1.0
 40
1.0
 10
121.4750163816172
 20
57.08229108214859
 30
-0.0000000000000003
 10
121.4066424683513
 20
57.11510701873656
 30
-0.0000000000000003
 10
121.3379249873963
 20
57.14778774036157
 30
-0.0000000000000003
 10
121.268715206835
 20
57.18027471188977
 30
-0.0000000000000003
  0
SPLINE
  5
111
330
1F
100
AcDbEntity
  8
1
  6
Continuous
 62
     1
370
    13
100
AcDbSpline
210
0.0
220
0.0
230
1.0
 70
     8
 71
     3
 72
     8
 73
     4
 74
     0
 42
0.000000001
 43
0.0000000001
 40
0.0
 40
0.0
 40
0.0
 40
0.0
 40
1.0
 40
1.0
 40
1.0
 40
1.0
 10
119.0851588839147
 20
57.18027471188608
 30
-0.0000000000000003
 10
119.0159491033578
 20
57.14778774035992
 30
-0.0000000000000003
 10
118.9472316224072
 20
57.11510701873699
 30
-0.0000000000000003
 10
118.8788577091457
 20
57.08229108215111
 30
-0.0000000000000003
  0
SPLINE
  5
112
330
1F
100
AcDbEntity
  8
1
  6
Continuous
 62
     1
370
    13
100
AcDbSpline
210
0.0
220
0.0
230
1.0
 70
     8
 71
     3
 72
     8
 73
     4
 74
     0
 42
0.000000001
 43
0.0000000001
 40
0.0
 40
0.0
 40
0.0
 40
0.0
 40
1.0
 40
1.0
 40
1.0
 40
1.0
 10
118.8788577091404
 20
46.21084456660636
 30
0.0000000000000003
 10
118.9472316224062
 20
46.17802863001838
 30
0.0000000000000003
 10
119.0159491033612
 20
46.14534790839338
 30
0.0000000000000003
 10
119.0851588839225
 20
46.11286093686517
 30
0.0000000000000003
  0
SPLINE
  5
113
330
1F
100
AcDbEntity
  8
1
  6
Continuous
 62
     1
370
    13
100
AcDbSpline
210
0.0
220
0.0
230
1.0
 70
     8
 71
     3
 72
     8
 73
     4
 74
     0
 42
0.000000001
 43
0.0000000001
 40
0.0
 40
0.0
 40
0.0
 40
0.0
 40
1.0
 40
1.0
 40
1.0
 40
1.0
 10
121.268715206843
 20
46.11286093686893
 30
0.0000000000000003
 10
121.3379249874016
 20
46.14534790839589
 30
0.0000000000000003
 10
121.406642468354
 20
46.17802863001965
 30
0.0000000000000003
 10
121.4750163816172
 20
46.21084456660636
 30
0.0000000000000003
  0
SPLINE
  5
114
330
1F
100
AcDbEntity
  8
1
  6
Continuous
 62
     1
370
    13
100
AcDbSpline
210
0.0
220
0.0
230
1.0
 70
     8
 71
     3
 72
    29
 73
    25
 74
     0
 42
0.000000001
 43
0.0000000001
 40
0.0
 40
0.0
 40
0.0
 40
0.0
 40
0.1249999999999998
 40
0.1249999999999998
 40
0.2499999999999997
 40
0.2499999999999997
 40
0.3749999999999995
 40
0.3749999999999995
 40
0.4374999999999993
 40
0.4687499999999994
 40
0.4687499999999994
 40
0.4999999999999996
 40
0.4999999999999996
 40
0.6249999999999993
 40
0.6249999999999993
 40
0.7499999999999992
 40
0.7499999999999992
 40
0.874999999999999
 40
0.874999999999999
 40
0.9062499999999992
 40
0.9062499999999992
 40
0.9374999999999994
 40
0.9374999999999994
 40
1.0
 40
1.0
 40
1.0
 40
1.0
 10
121.6440871700847
 20
46.15809622652393
 30
0.0000000000000003
 10
121.7955005062386
 20
46.17920274950448
 30
0.0000000000000003
 10
121.9456082542729
 20
46.20506332856604
 30
0.0000000000000003
 10
122.242609430664
 20
46.26819020580669
 30
0.0000000000000003
 10
122.3895063492763
 20
46.30543543798862
 30
0.0000000000000003
 10
122.6796637131615
 20
46.39246425854515
 30
0.0000000000000003
 10
122.8229277527961
 20
46.44223442639711
 30
0.0000000000000003
 10
123.0348261844881
 20
46.52699836005929
 30
0.0000000000000003
 10
123.1400262046226
 20
46.57190695479591
 30
0.0000000000000003
 10
123.2440484337508
 20
46.62075033666536
 30
0.0000000000000003
 10
123.3131283640767
 20
46.65420476089055
 30
0.0000000000000003
 10
123.3475768836281
 20
46.67140017124365
 30
0.0000000000000003
 10
123.5185866611482
 20
46.7593712407086
 30
0.0000000000000003
 10
123.6509788047591
 20
46.83585072180683
 30
0.0000000000000003
 10
123.9068938207526
 20
47.00096617568256
 30
0.0000000000000003
 10
124.0304188713942
 20
47.08959949531413
 30
0.0000000000000003
 10
124.2683774330875
 20
47.27923716051657
 30
0.0000000000000003
 10
124.382813649437
 20
47.38023812552399
 30
0.0000000000000003
 10
124.5198761669441
 20
47.51457692474978
 30
0.0000000000000003
 10
124.5469887770654
 20
47.54185008661889
 30
0.0000000000000003
 10
124.6006033517961
 20
47.59722060541019
 30
0.0000000000000002
 10
124.6270951710784
 20
47.62530905938313
 30
0.0000000000000002
 10
124.7053616936855
 20
47.71052222430671
 30
0.0000000000000002
 10
124.756021632149
 20
47.76868924545481
 30
0.0000000000000002
 10
124.8051430306722
 20
47.82822926451994
 30
0.0000000000000002
  0
SPLINE
  5
115
330
1F
100
AcDbEntity
  8
1
  6
Continuous
 62
     1
370
    13
100
AcDbSpline
210
0.0
220
0.0
230
1.0
 70
     8
 71
     3
 72
    25
 73
    21
 74
     0
 42
0.000000001
 43
0.0000000001
 40
0.0
 40
0.0
 40
0.0
 40
0.0
 40
0.1250000000000002
 40
0.1250000000000002
 40
0.2500000000000004
 40
0.2500000000000004
 40
0.3750000000000006
 40
0.3750000000000006
 40
0.4062500000000007
 40
0.4062500000000007
 40
0.4375000000000008
 40
0.500000000000001
 40
0.500000000000001
 40
0.7500000000000017
 40
0.7500000000000017
 40
0.8125000000000012
 40
0.8125000000000012
 40
0.8750000000000009
 40
0.8750000000000009
 40
1.0
 40
1.0
 40
1.0
 40
1.0
 10
124.8051430306722
 20
55.46490638423497
 30
-0.0000000000000002
 10
124.7071549560665
 20
55.5836776734404
 30
-0.0000000000000002
 10
124.6036899579545
 20
55.69623361122676
 30
-0.0000000000000002
 10
124.3864162603339
 20
55.9095392158743
 30
-0.0000000000000003
 10
124.2726044075699
 20
56.01028553914449
 30
-0.0000000000000003
 10
124.0349002176539
 20
56.20020034598609
 30
-0.0000000000000003
 10
123.9110060672835
 20
56.28936702189463
 30
-0.0000000000000003
 10
123.7498365310425
 20
56.39353734680836
 30
-0.0000000000000003
 10
123.717288169926
 20
56.41400366809072
 30
-0.0000000000000003
 10
123.6518868737135
 20
56.45400849584235
 30
-0.0000000000000003
 10
123.5532079051677
 20
56.51270265436149
 30
-0.0000000000000003
 10
123.4528301155019
 20
56.5675204376962
 30
-0.0000000000000003
 10
123.114585358345
 20
56.7418647762307
 30
-0.0000000000000003
 10
122.832317527766
 20
56.85456371568002
 30
-0.0000000000000003
 10
122.4664631074445
 20
56.96469492910176
 30
-0.0000000000000003
 10
122.3925667198843
 20
56.9851988694256
 30
-0.0000000000000003
 10
122.2443500320372
 20
57.02302418676541
 30
-0.0000000000000003
 10
122.1699417368238
 20
57.04037508150311
 30
-0.0000000000000003
 10
121.9458922734761
 20
57.08804299862722
 30
-0.0000000000000003
 10
121.7954232476751
 20
57.1139436688411
 30
-0.0000000000000003
 10
121.644087170084
 20
57.1350394222311
 30
-0.0000000000000003
  0
SPLINE
  5
116
330
1F
100
AcDbEntity
  8
1
  6
Continuous
 62
     1
370
    13
100
AcDbSpline
210
0.0
220
0.0
230
1.0
 70
     8
 71
     3
 72
    29
 73
    25
 74
     0
 42
0.000000001
 43
0.0000000001
 40
0.0
 40
0.0
 40
0.0
 40
0.0
 40
0.1249999999999996
 40
0.1249999999999996
 40
0.2499999999999991
 40
0.2499999999999991
 40
0.3749999999999986
 40
0.3749999999999986
 40
0.4374999999999982
 40
0.4687499999999982
 40
0.4687499999999982
 40
0.4999999999999981
 40
0.4999999999999981
 40
0.6249999999999984
 40
0.6249999999999984
 40
0.7499999999999987
 40
0.7499999999999987
 40
0.874999999999999
 40
0.874999999999999
 40
0.906249999999999
 40
0.906249999999999
 40
0.9374999999999991
 40
0.9374999999999991
 40
1.0
 40
1.0
 40
1.0
 40
1.0
 10
118.7097869206825
 20
57.13503942223235
 30
-0.0000000000000003
 10
118.5583735845282
 20
57.11393289925196
 30
-0.0000000000000003
 10
118.4082658364934
 20
57.08807232019053
 30
-0.0000000000000003
 10
118.1112646601015
 20
57.02494544295016
 30
-0.0000000000000003
 10
117.9643677414887
 20
56.98770021076833
 30
-0.0000000000000003
 10
117.6742103776026
 20
56.90067139021197
 30
-0.0000000000000003
 10
117.5309463379676
 20
56.85090122236006
 30
-0.0000000000000003
 10
117.3190479062749
 20
56.76613728869792
 30
-0.0000000000000003
 10
117.2138478861401
 20
56.72122869396131
 30
-0.0000000000000003
 10
117.1098256570115
 20
56.67238531209183
 30
-0.0000000000000003
 10
117.0407457266854
 20
56.63893088786662
 30
-0.0000000000000003
 10
117.0062972071339
 20
56.6217354775135
 30
-0.0000000000000003
 10
116.8352874296132
 20
56.53376440804851
 30
-0.0000000000000003
 10
116.7028952860019
 20
56.45728492695022
 30
-0.0000000000000003
 10
116.4469802700077
 20
56.29216947307427
 30
-0.0000000000000003
 10
116.3234552193657
 20
56.20353615344256
 30
-0.0000000000000003
 10
116.0854966576716
 20
56.01389848823973
 30
-0.0000000000000003
 10
115.9710604413218
 20
55.91289752323209
 30
-0.0000000000000003
 10
115.8339979238143
 20
55.77855872400596
 30
-0.0000000000000003
 10
115.8068853136929
 20
55.75128556213678
 30
-0.0000000000000003
 10
115.753270738962
 20
55.69591504334533
 30
-0.0000000000000002
 10
115.7267789196796
 20
55.66782658937232
 30
-0.0000000000000002
 10
115.6485123970723
 20
55.58261342444854
 30
-0.0000000000000002
 10
115.5978524586087
 20
55.52444640330029
 30
-0.0000000000000002
 10
115.5487310600854
 20
55.464906384235
 30
-0.0000000000000002
  0
SPLINE
  5
117
330
1F
100
AcDbEntity
  8
1
  6
Continuous
 62
     1
370
    13
100
AcDbSpline
210
0.0
220
0.0
230
1.0
 70
     8
 71
     3
 72
    28
 73
    24
 74
     0
 42
0.000000001
 43
0.0000000001
 40
0.0
 40
0.0
 40
0.0
 40
0.0
 40
0.1249999999999999
 40
0.1249999999999999
 40
0.1874999999999999
 40
0.1874999999999999
 40
0.2187499999999999
 40
0.2187499999999999
 40
0.2499999999999999
 40
0.3749999999999999
 40
0.3749999999999999
 40
0.4999999999999999
 40
0.4999999999999999
 40
0.5625000000000001
 40
0.5625000000000001
 40
0.5937500000000001
 40
0.5937500000000001
 40
0.6250000000000002
 40
0.6250000000000002
 40
0.7500000000000001
 40
0.8750000000000001
 40
0.8750000000000001
 40
1.0
 40
1.0
 40
1.0
 40
1.0
 10
118.6111622940693
 20
44.53418502591614
 30
0.0000000000000004
 10
118.3990176323435
 20
44.54706915901482
 30
0.0000000000000004
 10
118.1881337807775
 20
44.56907223351344
 30
0.0000000000000004
 10
117.8739001008361
 20
44.61720815865933
 30
0.0000000000000004
 10
117.769502726748
 20
44.63576452533439
 30
0.0000000000000004
 10
117.6134456853624
 20
44.66749759206107
 30
0.0000000000000004
 10
117.5614647660638
 20
44.67873717156131
 30
0.0000000000000004
 10
117.4579799063975
 20
44.70246836886487
 30
0.0000000000000004
 10
117.2005060408979
 20
44.76491053026746
 30
0.0000000000000004
 10
116.9492021654276
 20
44.84286964220384
 30
0.0000000000000004
 10
116.5550299629541
 20
44.98750719022718
 30
0.0000000000000004
 10
116.3618981568327
 20
45.06977064833239
 30
0.0000000000000004
 10
116.078273918532
 20
45.20844004935268
 30
0.0000000000000004
 10
115.9847463366385
 20
45.25721287329081
 30
0.0000000000000004
 10
115.8460101337124
 20
45.3342832167551
 30
0.0000000000000004
 10
115.8000240563694
 20
45.36062550603726
 30
0.0000000000000004
 10
115.7085779534993
 20
45.41463305594588
 30
0.0000000000000004
 10
115.6631182027219
 20
45.44230141515197
 30
0.0000000000000004
 10
115.4384815283745
 20
45.58314112297266
 30
0.0000000000000004
 10
115.0938759512269
 20
45.82569150318842
 30
0.0000000000000004
 10
114.7782760503444
 20
46.1019347763897
 30
0.0000000000000003
 10
114.4773633779888
 20
46.39523868332675
 30
0.0000000000000003
 10
114.3342473704301
 20
46.55041713706992
 30
0.0000000000000003
 10
114.1988376477082
 20
46.71454718456153
 30
0.0000000000000003
  0
SPLINE
  5
118
330
1F
100
AcDbEntity
  8
1
  6
Continuous
 62
     1
370
    13
100
AcDbSpline
210
0.0
220
0.0
230
1.0
 70
     8
 71
     3
 72
    25
 73
    21
 74
     0
 42
0.000000001
 43
0.0000000001
 40
0.0
 40
0.0
 40
0.0
 40
0.0
 40
0.1250000000000001
 40
0.1250000000000001
 40
0.2500000000000001
 40
0.2500000000000001
 40
0.3750000000000002
 40
0.3750000000000002
 40
0.4062500000000002
 40
0.4062500000000002
 40
0.4375000000000003
 40
0.5000000000000004
 40
0.5000000000000004
 40
0.7500000000000004
 40
0.7500000000000004
 40
0.8125000000000003
 40
0.8125000000000003
 40
0.8750000000000002
 40
0.8750000000000002
 40
1.0
 40
1.0
 40
1.0
 40
1.0
 10
115.5487310600854
 20
47.82822926451997
 30
0.0000000000000002
 10
115.646719134691
 20
47.70945797531454
 30
0.0000000000000002
 10
115.750184132803
 20
47.59690203752818
 30
0.0000000000000002
 10
115.9674578304237
 20
47.38359643288064
 30
0.0000000000000003
 10
116.0812696831877
 20
47.28285010961045
 30
0.0000000000000003
 10
116.3189738731037
 20
47.09293530276885
 30
0.0000000000000003
 10
116.4428680234741
 20
47.00376862686032
 30
0.0000000000000003
 10
116.6040375597151
 20
46.89959830194658
 30
0.0000000000000003
 10
116.6365859208315
 20
46.87913198066423
 30
0.0000000000000003
 10
116.7019872170441
 20
46.83912715291259
 30
0.0000000000000003
 10
116.8006661855899
 20
46.78043299439346
 30
0.0000000000000003
 10
116.9010439752557
 20
46.72561521105874
 30
0.0000000000000003
 10
117.2392887324126
 20
46.55127087252424
 30
0.0000000000000003
 10
117.5215565629916
 20
46.43857193307492
 30
0.0000000000000003
 10
117.8874109833131
 20
46.32844071965319
 30
0.0000000000000003
 10
117.9613073708732
 20
46.30793677932935
 30
0.0000000000000003
 10
118.1095240587204
 20
46.27011146198953
 30
0.0000000000000003
 10
118.1839323539338
 20
46.25276056725183
 30
0.0000000000000003
 10
118.4079818172815
 20
46.20509265012772
 30
0.0000000000000003
 10
118.5584508430825
 20
46.17919197991385
 30
0.0000000000000003
 10
118.7097869206736
 20
46.15809622652385
 30
0.0000000000000003
  0
SPLINE
  5
119
330
1F
100
AcDbEntity
  8
1
  6
Continuous
 62
     1
370
    13
100
AcDbSpline
210
0.0
220
0.0
230
1.0
 70
     8
 71
     3
 72
    32
 73
    28
 74
     0
 42
0.000000001
 43
0.0000000001
 40
0.0
 40
0.0
 40
0.0
 40
0.0
 40
0.0991501104694085
 40
0.0991501104694085
 40
0.2117563466607328
 40
0.2117563466607328
 40
0.2680594647563948
 40
0.2680594647563948
 40
0.324362582852057
 40
0.324362582852057
 40
0.4369688190433795
 40
0.4369688190433795
 40
0.5495750552347024
 40
0.5495750552347024
 40
0.6621812914260252
 40
0.6621812914260252
 40
0.7184844095216872
 40
0.7184844095216872
 40
0.7747875276173495
 40
0.7747875276173495
 40
0.8873937638086743
 40
0.8873937638086743
 40
0.9155453228565059
 40
0.9155453228565059
 40
0.9436968819043375
 40
0.9436968819043375
 40
1.0
 40
1.0
 40
1.0
 40
1.0
 10
124.6856355780358
 20
48.1432472828024
 30
0.0000000000000002
 10
124.642189238311
 20
48.12545148346306
 30
0.0000000000000002
 10
124.5978896812212
 20
48.10941452404388
 30
0.0000000000000002
 10
124.5013799578511
 20
48.07866883664679
 30
0.0000000000000002
 10
124.4489013696777
 20
48.0644418522369
 30
0.0000000000000002
 10
124.3682315135404
 20
48.04605339074799
 30
0.0000000000000002
 10
124.3410150603345
 20
48.04041594496179
 30
0.0000000000000002
 10
124.2858755445174
 20
48.03008548638513
 30
0.0000000000000002
 10
124.2580290251833
 20
48.02540755604667
 30
0.0000000000000002
 10
124.1737667694037
 20
48.01277239890406
 30
0.0000000000000002
 10
124.1165610215705
 20
48.00620106549736
 30
0.0000000000000002
 10
123.9995227916209
 20
47.99622229551896
 30
0.0000000000000002
 10
123.9396971547569
 20
47.9928177617252
 30
0.0000000000000002
 10
123.8165004766274
 20
47.98854878457122
 30
0.0000000000000002
 10
123.7531442674507
 20
47.98768972720519
 30
0.0000000000000002
 10
123.6542647314179
 20
47.98768510463934
 30
0.0000000000000002
 10
123.6206576654992
 20
47.98789552067987
 30
0.0000000000000002
 10
123.5518331051469
 20
47.98859814818202
 30
0.0000000000000002
 10
123.5168772812868
 20
47.98908768001159
 30
0.0000000000000002
 10
123.410604924349
 20
47.9906767989076
 30
0.0000000000000002
 10
123.3377031852717
 20
47.99191462939538
 30
0.0000000000000002
 10
123.2428599917329
 20
47.99250539895222
 30
0.0000000000000002
 10
123.2236650327267
 20
47.99257422783875
 30
0.0000000000000002
 10
123.1852873756295
 20
47.99258077454642
 30
0.0000000000000002
 10
123.1660629459729
 20
47.99251892636875
 30
0.0000000000000002
 10
123.1082792867974
 20
47.99209873184209
 30
0.0000000000000002
 10
123.0696094795161
 20
47.99150401978306
 30
0.0000000000000002
 10
123.0307848763828
 20
47.99050755094082
 30
0.0000000000000002
  0
SPLINE
  5
11A
330
1F
100
AcDbEntity
  8
1
  6
Continuous
 62
     1
370
    13
100
AcDbSpline
210
0.0
220
0.0
230
1.0
 70
     8
 71
     3
 72
    30
 73
    26
 74
     0
 42
0.000000001
 43
0.0000000001
 40
0.0
 40
0.0
 40
0.0
 40
0.0
 40
0.0758920690963627
 40
0.0758920690963627
 40
0.1914055604593172
 40
0.1914055604593172
 40
0.3069190518222717
 40
0.3069190518222717
 40
0.4224325431852262
 40
0.4224325431852262
 40
0.5379460345481805
 40
0.5379460345481805
 40
0.653459525911135
 40
0.653459525911135
 40
0.7112162715926124
 40
0.7112162715926124
 40
0.7689730172740895
 40
0.7689730172740895
 40
0.8844865086370447
 40
0.8844865086370447
 40
0.9133648814777835
 40
0.9133648814777835
 40
0.9422432543185224
 40
0.9422432543185224
 40
1.0
 40
1.0
 40
1.0
 40
1.0
 10
115.687703829984
 20
55.14712039727127
 30
-0.0000000000000002
 10
115.7207865608544
 20
55.16033486905638
 30
-0.0000000000000002
 10
115.7543655554161
 20
55.17257725585382
 30
-0.0000000000000002
 10
115.8403432186337
 20
55.20112365974669
 30
-0.0000000000000002
 10
115.8934256703288
 20
55.21620521609917
 30
-0.0000000000000002
 10
116.0022690322999
 20
55.24238092024076
 30
-0.0000000000000002
 10
116.0581527969317
 20
55.25348442238411
 30
-0.0000000000000002
 10
116.1717725644841
 20
55.27185019117283
 30
-0.0000000000000002
 10
116.2296277324516
 20
55.27914966064554
 30
-0.0000000000000002
 10
116.3479842804586
 20
55.29052447391258
 30
-0.0000000000000002
 10
116.40847905943
 20
55.29459695030997
 30
-0.0000000000000002
 10
116.5330164962637
 20
55.30014236428654
 30
-0.0000000000000002
 10
116.5970449993516
 20
55.30161006034933
 30
-0.0000000000000002
 10
116.6969069072468
 20
55.30248070113674
 30
-0.0000000000000002
 10
116.7308372466187
 20
55.30255109463276
 30
-0.0000000000000002
 10
116.8002883671342
 20
55.30239294161034
 30
-0.0000000000000002
 10
116.8354358658684
 20
55.30216566357383
 30
-0.0000000000000002
 10
116.9423817788889
 20
55.30132333470787
 30
-0.0000000000000002
 10
117.0156625888001
 20
55.30053336948518
 30
-0.0000000000000002
 10
117.1108128469927
 20
55.30040686278207
 30
-0.0000000000000002
 10
117.1300589673326
 20
55.30042613273442
 30
-0.0000000000000002
 10
117.1685294653132
 20
55.30058314736866
 30
-0.0000000000000002
 10
117.1877950720199
 20
55.30072069141716
 30
-0.0000000000000002
 10
117.245685748867
 20
55.30134888748739
 30
-0.0000000000000002
 10
117.2844048413143
 20
55.30205672871238
 30
-0.0000000000000002
 10
117.3232549942434
 20
55.30313943410393
 30
-0.0000000000000002
  0
SPLINE
  5
11B
330
1F
100
AcDbEntity
  8
1
  6
Continuous
 62
     1
370
    13
100
AcDbSpline
210
0.0
220
0.0
230
1.0
 70
     8
 71
     3
 72
    30
 73
    26
 74
     0
 42
0.000000001
 43
0.0000000001
 40
0.0
 40
0.0
 40
0.0
 40
0.0
 40
0.1129496424082415
 40
0.1129496424082415
 40
0.1411870530103015
 40
0.1411870530103015
 40
0.1694244636123615
 40
0.1694244636123615
 40
0.2258992848164822
 40
0.2258992848164822
 40
0.282374106020603
 40
0.282374106020603
 40
0.3388489272247237
 40
0.3388489272247237
 40
0.4517985696329652
 40
0.4517985696329652
 40
0.5647482120412066
 40
0.5647482120412066
 40
0.6776978544494481
 40
0.6776978544494481
 40
0.7906474968576895
 40
0.7906474968576895
 40
0.9035971392659311
 40
0.9035971392659311
 40
1.0
 40
1.0
 40
1.0
 40
1.0
 10
123.0307848763828
 20
55.30262809781412
 30
-0.0000000000000002
 10
123.1087016884402
 20
55.300628291783
 30
-0.0000000000000002
 10
123.1852812271508
 20
55.30027930498898
 30
-0.0000000000000002
 10
123.2796079895373
 20
55.30085729148089
 30
-0.0000000000000002
 10
123.2984037110166
 20
55.30102247319789
 30
-0.0000000000000002
 10
123.3358633917123
 20
55.30142242757601
 30
-0.0000000000000002
 10
123.3545629794538
 20
55.30165770381667
 30
-0.0000000000000002
 10
123.4101406445197
 20
55.3024181648711
 30
-0.0000000000000002
 10
123.446522709772
 20
55.30299648205143
 30
-0.0000000000000002
 10
123.5181782784158
 20
55.30406686518845
 30
-0.0000000000000002
 10
123.5531715074415
 20
55.30455392367234
 30
-0.0000000000000002
 10
123.6215323310246
 20
55.30524620743177
 30
-0.0000000000000002
 10
123.6549554386808
 20
55.30545279317712
 30
-0.0000000000000002
 10
123.7533879891997
 20
55.30544129050605
 30
-0.0000000000000002
 10
123.816583843617
 20
55.30458405388446
 30
-0.0000000000000002
 10
123.9396247432535
 20
55.30032031769554
 30
-0.0000000000000002
 10
123.9994566825977
 20
55.29691895871277
 30
-0.0000000000000002
 10
124.1166239158168
 20
55.2869292518743
 30
-0.0000000000000002
 10
124.1739530069901
 20
55.28034377789763
 30
-0.0000000000000002
 10
124.2866402092646
 20
55.26342932695164
 30
-0.0000000000000002
 10
124.3418638066268
 20
55.25311382164141
 30
-0.0000000000000002
 10
124.4498862137931
 20
55.22844788669753
 30
-0.0000000000000002
 10
124.5025129096414
 20
55.21414462215354
 30
-0.0000000000000002
 10
124.5977752678693
 20
55.183723654807
 30
-0.0000000000000002
 10
124.6407531247099
 20
55.16818236598311
 30
-0.0000000000000002
 10
124.6828786211103
 20
55.15101383496096
 30
-0.0000000000000002
  0
SPLINE
  5
11C
330
1F
100
AcDbEntity
  8
1
  6
Continuous
 62
     1
370
    13
100
AcDbSpline
210
0.0
220
0.0
230
1.0
 70
     8
 71
     3
 72
    32
 73
    28
 74
     0
 42
0.000000001
 43
0.0000000001
 40
0.0
 40
0.0
 40
0.0
 40
0.0
 40
0.1169385526856277
 40
0.1169385526856277
 40
0.1754078290284418
 40
0.1754078290284418
 40
0.2338771053712559
 40
0.2338771053712559
 40
0.263111743542663
 40
0.263111743542663
 40
0.2923463817140701
 40
0.2923463817140701
 40
0.3508156580568831
 40
0.3508156580568831
 40
0.4677542107425104
 40
0.4677542107425104
 40
0.5846927634281371
 40
0.5846927634281371
 40
0.7016313161137638
 40
0.7016313161137638
 40
0.7601005924565777
 40
0.7601005924565777
 40
0.8185698687993915
 40
0.8185698687993915
 40
0.9355084214850183
 40
0.9355084214850183
 40
1.0
 40
1.0
 40
1.0
 40
1.0
 10
117.3232549942433
 20
47.98999621465101
 30
0.0000000000000002
 10
117.24509496246
 20
47.99217443742326
 30
0.0000000000000002
 10
117.1685053825634
 20
47.99279660957443
 30
0.0000000000000002
 10
117.055555103025
 20
47.99265963439244
 30
0.0000000000000002
 10
117.0182265334424
 20
47.9924389302253
 30
0.0000000000000002
 10
116.9441398686013
 20
47.99187719443761
 30
0.0000000000000002
 10
116.907337772732
 20
47.99153645073564
 30
0.0000000000000002
 10
116.8532039348651
 20
47.99110985541853
 30
0.0000000000000002
 10
116.8352796961818
 20
47.99098117828334
 30
0.0000000000000002
 10
116.7999024187487
 20
47.99077709157859
 30
0.0000000000000002
 10
116.7824315550746
 20
47.99070148030329
 30
0.0000000000000002
 10
116.7306020970619
 20
47.99058516599155
 30
0.0000000000000002
 10
116.6968239098681
 20
47.99065591105175
 30
0.0000000000000002
 10
116.5973718005232
 20
47.99152226013742
 30
0.0000000000000002
 10
116.5335567607289
 20
47.99297983578432
 30
0.0000000000000002
 10
116.4093784566471
 20
47.99848816405691
 30
0.0000000000000002
 10
116.3490285683099
 20
48.0025338168337
 30
0.0000000000000002
 10
116.2309172214858
 20
48.01383950563278
 30
0.0000000000000002
 10
116.173162069701
 20
48.02109671509392
 30
0.0000000000000002
 10
116.0880730997667
 20
48.03479759726418
 30
0.0000000000000002
 10
116.0599695155985
 20
48.03983332498091
 30
0.0000000000000002
 10
116.004234192875
 20
48.05090799838359
 30
0.0000000000000002
 10
115.9765895051391
 20
48.05695094759941
 30
0.0000000000000002
 10
115.8945833905011
 20
48.07661244434778
 30
0.0000000000000002
 10
115.8413265779467
 20
48.09171478808604
 30
0.0000000000000002
 10
115.7606735409506
 20
48.11844823649466
 30
0.0000000000000002
 10
115.7323867695414
 20
48.12859714143321
 30
0.0000000000000002
 10
115.7044724447701
 20
48.13941727359757
 30
0.0000000000000002
  0
SPLINE
  5
11D
330
1F
100
AcDbEntity
  8
1
  6
Continuous
 62
     1
370
    13
100
AcDbSpline
210
0.0
220
0.0
230
1.0
 70
     8
 71
     3
 72
    18
 73
    14
 74
     0
 42
0.000000001
 43
0.0000000001
 40
0.0
 40
0.0
 40
0.0
 40
0.0
 40
0.2500000000000001
 40
0.2500000000000001
 40
0.375
 40
0.375
 40
0.5
 40
0.5
 40
0.625
 40
0.625
 40
0.75
 40
0.75
 40
1.0
 40
1.0
 40
1.0
 40
1.0
 10
117.3232549942434
 20
55.30313943410393
 30
-0.0000000000000002
 10
117.7989413130455
 20
55.30202765538606
 30
-0.0000000000000002
 10
118.2745260570848
 20
55.29783989123635
 30
-0.0000000000000002
 10
118.9879253916818
 20
55.29223108832042
 30
-0.0000000000000002
 10
119.2257291570983
 20
55.2904822321343
 30
-0.0000000000000002
 10
119.7013681849249
 20
55.28793834225524
 30
-0.0000000000000002
 10
119.9392036986366
 20
55.2871500373447
 30
-0.0000000000000002
 10
120.4149170334668
 20
55.2868581478836
 30
-0.0000000000000002
 10
120.6527531356971
 20
55.2873554578541
 30
-0.0000000000000002
 10
121.1283906180525
 20
55.28943614425592
 30
-0.0000000000000002
 10
121.3661921819234
 20
55.29101377333177
 30
-0.0000000000000002
 10
122.0795759663942
 20
55.29640061128409
 30
-0.0000000000000002
 10
122.5551378067178
 20
55.30084729113758
 30
-0.0000000000000002
 10
123.0307848763828
 20
55.30262809781412
 30
-0.0000000000000002
  0
SPLINE
  5
11E
330
1F
100
AcDbEntity
  8
1
  6
Continuous
 62
     1
370
    13
100
AcDbSpline
210
0.0
220
0.0
230
1.0
 70
     8
 71
     3
 72
    18
 73
    14
 74
     0
 42
0.000000001
 43
0.0000000001
 40
0.0
 40
0.0
 40
0.0
 40
0.0
 40
0.2500000000000001
 40
0.2500000000000001
 40
0.3750000000000001
 40
0.3750000000000001
 40
0.5000000000000001
 40
0.5000000000000001
 40
0.625
 40
0.625
 40
0.7500000000000001
 40
0.7500000000000001
 40
1.0
 40
1.0
 40
1.0
 40
1.0
 10
123.0307848763828
 20
47.99050755094082
 30
0.0000000000000002
 10
122.5551378067178
 20
47.99228835761736
 30
0.0000000000000002
 10
122.0795759663942
 20
47.99673503747085
 30
0.0000000000000002
 10
121.3661921819234
 20
48.00212187542318
 30
0.0000000000000002
 10
121.1283906180525
 20
48.00369950449903
 30
0.0000000000000002
 10
120.6527531356971
 20
48.00578019090084
 30
0.0000000000000002
 10
120.4149170334668
 20
48.00627750087134
 30
0.0000000000000002
 10
119.9392036986366
 20
48.00598561141024
 30
0.0000000000000002
 10
119.7013681849249
 20
48.0051973064997
 30
0.0000000000000002
 10
119.2257291570983
 20
48.00265341662064
 30
0.0000000000000002
 10
118.9879253916818
 20
48.00090456043453
 30
0.0000000000000002
 10
118.2745260570848
 20
47.99529575751859
 30
0.0000000000000002
 10
117.7989413130454
 20
47.99110799336888
 30
0.0000000000000002
 10
117.3232549942433
 20
47.98999621465101
 30
0.0000000000000002
  0
LINE
  5
11F
330
1F
100
AcDbEntity
  8
1
  6
CENTER
 62
    30
370
    13
100
AcDbLine
 10
120.260666
 20
165.004755
 30
0.0
 11
120.260666
 21
245.004755
 31
0.0
  0
LINE
  5
120
330
1F
100
AcDbEntity
  8
1
  6
CENTER
 62
    30
370
    13
100
AcDbLine
 10
101.260666
 20
217.004755
 30
0.0
 11
141.260666
 21
217.004755
 31
0.0
  0
ENDSEC
  0
SECTION
  2
OBJECTS
  0
DICTIONARY
  5
C
330
0
100
AcDbDictionary
281
     1
  3
ACAD_DETAILVIEWSTYLE
350
175
  3
ACAD_GROUP
350
D
  3
ACAD_LAYOUT
350
1A
  3
ACAD_MATERIAL
350
43
  3
ACAD_MLEADERSTYLE
350
6B
  3
ACAD_MLINESTYLE
350
17
  3
ACAD_PLOTSETTINGS
350
19
  3
ACAD_PLOTSTYLENAME
350
E
  3
ACAD_SCALELIST
350
47
  3
ACAD_SECTIONVIEWSTYLE
350
176
  3
ACAD_TABLESTYLE
350
69
  3
ACAD_VISUALSTYLE
350
2A
  3
ACDB_RECOMPOSE_DATA
350
172
  3
AcDbVariableDictionary
350
132
  0
DICTIONARY
  5
130
330
8
100
AcDbDictionary
280
     1
281
     1
  3
ACAD_XREC_ROUNDTRIP
360
131
  0
DICTIONARY
  5
175
102
{ACAD_REACTORS
330
C
102
}
330
C
100
AcDbDictionary
281
     1
  0
DICTIONARY
  5
D
102
{ACAD_REACTORS
330
C
102
}
330
C
100
AcDbDictionary
281
     1
  0
DICTIONARY
  5
1A
102
{ACAD_REACTORS
330
C
102
}
330
C
100
AcDbDictionary
281
     1
  3
Layout1
350
1E
  3
Layout2
350
26
  3
Model
350
22
  0
DICTIONARY
  5
43
102
{ACAD_REACTORS
330
C
102
}
330
C
100
AcDbDictionary
281
     1
  3
ByBlock
350
45
  3
ByLayer
350
44
  3
Global
350
46
  0
DICTIONARY
  5
6B
102
{ACAD_REACTORS
330
C
102
}
330
C
100
AcDbDictionary
281
     1
  3
Standard
350
6C
  0
DICTIONARY
  5
17
102
{ACAD_REACTORS
330
C
102
}
330
C
100
AcDbDictionary
281
     1
  3
Standard
350
18
  0
DICTIONARY
  5
19
102
{ACAD_REACTORS
330
C
102
}
330
C
100
AcDbDictionary
281
     1
  0
ACDBDICTIONARYWDFLT
  5
E
102
{ACAD_REACTORS
330
C
102
}
330
C
100
AcDbDictionary
281
     1
  3
Normal
350
F
100
AcDbDictionaryWithDefault
340
F
  0
DICTIONARY
  5
47
102
{ACAD_REACTORS
330
C
102
}
330
C
100
AcDbDictionary
281
     1
  3
A0
350
48
  3
A1
350
49
  3
A2
350
4A
  3
A3
350
4B
  3
A4
350
4C
  3
A5
350
4D
  3
A6
350
4E
  3
A7
350
4F
  3
A8
350
50
  3
A9
350
51
  3
B0
350
52
  3
B1
350
53
  3
B2
350
54
  3
B3
350
55
  3
B4
350
56
  3
B5
350
57
  3
B6
350
58
  3
B7
350
59
  3
B8
350
5A
  3
B9
350
5B
  3
C0
350
5C
  3
C1
350
5D
  3
C2
350
5E
  3
C3
350
5F
  3
C4
350
60
  3
C5
350
61
  3
C6
350
62
  3
C7
350
63
  3
C8
350
64
  3
C9
350
65
  3
D0
350
66
  3
D1
350
67
  3
D2
350
68
  0
DICTIONARY
  5
176
102
{ACAD_REACTORS
330
C
102
}
330
C
100
AcDbDictionary
281
     1
  0
DICTIONARY
  5
69
102
{ACAD_REACTORS
330
C
102
}
330
C
100
AcDbDictionary
281
     1
  3
Standard
350
6A
  0
DICTIONARY
  5
2A
102
{ACAD_REACTORS
330
C
102
}
330
C
100
AcDbDictionary
281
     1
  3
2dWireframe
350
2F
  3
Basic
350
32
  3
Brighten
350
36
  3
ColorChange
350
3A
  3
Conceptual
350
34
  3
Dim
350
35
  3
EdgeColorOff
350
3D
  3
Facepattern
350
39
  3
Flat
350
2B
  3
FlatWithEdges
350
2C
  3
Gouraud
350
2D
  3
GouraudWithEdges
350
2E
  3
Hidden
350
31
  3
JitterOff
350
3B
  3
Linepattern
350
38
  3
OverhangOff
350
3C
  3
Realistic
350
33
  3
Shaded
350
42
  3
Shaded with edges
350
41
  3
Shades of Gray
350
3E
  3
Sketchy
350
3F
  3
Thicken
350
37
  3
Wireframe
350
30
  3
X-Ray
350
40
  0
XRECORD
  5
172
102
{ACAD_REACTORS
330
C
102
}
330
C
100
AcDbXrecord
280
     1
 90
        1
330
6A
  0
DICTIONARY
  5
132
102
{ACAD_REACTORS
330
C
102
}
330
C
100
AcDbDictionary
281
     1
  3
CANNOSCALE
350
133
  3
CMLEADERSTYLE
350
174
  3
CTABLESTYLE
350
173
  3
MSLTSCALE
350
134
  3
XCLIPFRAME
350
135
  0
XRECORD
  5
131
102
{ACAD_REACTORS
330
130
102
}
330
130
100
AcDbXrecord
280
     1
102
VTR_0.000_0.000_1.000_1.000_VISUALSTYLE
340
2F
102
VTR_0.000_0.000_1.000_1.000_GRIDDISPLAY
 70
     3
102
VTR_0.000_0.000_1.000_1.000_GRIDMAJOR
 70
     5
102
VTR_0.000_0.000_1.000_1.000_DEFAULTLIGHTING
280
     1
102
VTR_0.000_0.000_1.000_1.000_DEFAULTLIGHTINGTYPE
 70
     1
102
VTR_0.000_0.000_1.000_1.000_BRIGHTNESS
141
0.0
102
VTR_0.000_0.000_1.000_1.000_CONTRAST
142
0.0
102
VTR_0.000_0.000_0.500_1.000_VISUALSTYLE
340
2F
102
VTR_0.000_0.000_0.500_1.000_GRIDDISPLAY
 70
     3
102
VTR_0.000_0.000_0.500_1.000_GRIDMAJOR
 70
     5
102
VTR_0.000_0.000_0.500_1.000_DEFAULTLIGHTING
280
     1
102
VTR_0.000_0.000_0.500_1.000_DEFAULTLIGHTINGTYPE
 70
     1
102
VTR_0.000_0.000_0.500_1.000_BRIGHTNESS
141
0.0
102
VTR_0.000_0.000_0.500_1.000_CONTRAST
142
0.0
102
VTR_0.500_0.000_1.000_1.000_VISUALSTYLE
340
2F
102
VTR_0.500_0.000_1.000_1.000_GRIDDISPLAY
 70
     3
102
VTR_0.500_0.000_1.000_1.000_GRIDMAJOR
 70
     5
102
VTR_0.500_0.000_1.000_1.000_DEFAULTLIGHTING
280
     1
102
VTR_0.500_0.000_1.000_1.000_DEFAULTLIGHTINGTYPE
 70
     1
102
VTR_0.500_0.000_1.000_1.000_BRIGHTNESS
141
0.0
102
VTR_0.500_0.000_1.000_1.000_CONTRAST
142
0.0
102
VTR_0.000_0.500_1.000_1.000_VISUALSTYLE
340
2F
102
VTR_0.000_0.500_1.000_1.000_GRIDDISPLAY
 70
     3
102
VTR_0.000_0.500_1.000_1.000_GRIDMAJOR
 70
     5
102
VTR_0.000_0.500_1.000_1.000_DEFAULTLIGHTING
280
     1
102
VTR_0.000_0.500_1.000_1.000_DEFAULTLIGHTINGTYPE
 70
     1
102
VTR_0.000_0.500_1.000_1.000_BRIGHTNESS
141
0.0
102
VTR_0.000_0.500_1.000_1.000_CONTRAST
142
0.0
102
VTR_0.000_0.000_1.000_0.500_VISUALSTYLE
340
2F
102
VTR_0.000_0.000_1.000_0.500_GRIDDISPLAY
 70
     3
102
VTR_0.000_0.000_1.000_0.500_GRIDMAJOR
 70
     5
102
VTR_0.000_0.000_1.000_0.500_DEFAULTLIGHTING
280
     1
102
VTR_0.000_0.000_1.000_0.500_DEFAULTLIGHTINGTYPE
 70
     1
102
VTR_0.000_0.000_1.000_0.500_BRIGHTNESS
141
0.0
102
VTR_0.000_0.000_1.000_0.500_CONTRAST
142
0.0
102
VTR_0.000_0.500_0.500_1.000_VISUALSTYLE
340
2F
102
VTR_0.000_0.500_0.500_1.000_GRIDDISPLAY
 70
     3
102
VTR_0.000_0.500_0.500_1.000_GRIDMAJOR
 70
     5
102
VTR_0.000_0.500_0.500_1.000_DEFAULTLIGHTING
280
     1
102
VTR_0.000_0.500_0.500_1.000_DEFAULTLIGHTINGTYPE
 70
     1
102
VTR_0.000_0.500_0.500_1.000_BRIGHTNESS
141
0.0
102
VTR_0.000_0.500_0.500_1.000_CONTRAST
142
0.0
102
VTR_0.000_0.000_0.500_0.500_VISUALSTYLE
340
2F
102
VTR_0.000_0.000_0.500_0.500_GRIDDISPLAY
 70
     3
102
VTR_0.000_0.000_0.500_0.500_GRIDMAJOR
 70
     5
102
VTR_0.000_0.000_0.500_0.500_DEFAULTLIGHTING
280
     1
102
VTR_0.000_0.000_0.500_0.500_DEFAULTLIGHTINGTYPE
 70
     1
102
VTR_0.000_0.000_0.500_0.500_BRIGHTNESS
141
0.0
102
VTR_0.000_0.000_0.500_0.500_CONTRAST
142
0.0
102
VTR_0.500_0.000_1.000_0.500_VISUALSTYLE
340
2F
102
VTR_0.500_0.000_1.000_0.500_GRIDDISPLAY
 70
     3
102
VTR_0.500_0.000_1.000_0.500_GRIDMAJOR
 70
     5
102
VTR_0.500_0.000_1.000_0.500_DEFAULTLIGHTING
280
     1
102
VTR_0.500_0.000_1.000_0.500_DEFAULTLIGHTINGTYPE
 70
     1
102
VTR_0.500_0.000_1.000_0.500_BRIGHTNESS
141
0.0
102
VTR_0.500_0.000_1.000_0.500_CONTRAST
142
0.0
102
VTR_0.500_0.500_1.000_1.000_VISUALSTYLE
340
2F
102
VTR_0.500_0.500_1.000_1.000_GRIDDISPLAY
 70
     3
102
VTR_0.500_0.500_1.000_1.000_GRIDMAJOR
 70
     5
102
VTR_0.500_0.500_1.000_1.000_DEFAULTLIGHTING
280
     1
102
VTR_0.500_0.500_1.000_1.000_DEFAULTLIGHTINGTYPE
 70
     1
102
VTR_0.500_0.500_1.000_1.000_BRIGHTNESS
141
0.0
102
VTR_0.500_0.500_1.000_1.000_CONTRAST
142
0.0
102
VTR_0.000_0.500_0.333_1.000_VISUALSTYLE
340
2F
102
VTR_0.000_0.500_0.333_1.000_GRIDDISPLAY
 70
     3
102
VTR_0.000_0.500_0.333_1.000_GRIDMAJOR
 70
     5
102
VTR_0.000_0.500_0.333_1.000_DEFAULTLIGHTING
280
     1
102
VTR_0.000_0.500_0.333_1.000_DEFAULTLIGHTINGTYPE
 70
     1
102
VTR_0.000_0.500_0.333_1.000_BRIGHTNESS
141
0.0
102
VTR_0.000_0.500_0.333_1.000_CONTRAST
142
0.0
102
VTR_0.000_0.000_0.333_0.500_VISUALSTYLE
340
2F
102
VTR_0.000_0.000_0.333_0.500_GRIDDISPLAY
 70
     3
102
VTR_0.000_0.000_0.333_0.500_GRIDMAJOR
 70
     5
102
VTR_0.000_0.000_0.333_0.500_DEFAULTLIGHTING
280
     1
102
VTR_0.000_0.000_0.333_0.500_DEFAULTLIGHTINGTYPE
 70
     1
102
VTR_0.000_0.000_0.333_0.500_BRIGHTNESS
141
0.0
102
VTR_0.000_0.000_0.333_0.500_CONTRAST
142
0.0
102
VTR_0.333_0.500_0.667_1.000_VISUALSTYLE
340
2F
102
VTR_0.333_0.500_0.667_1.000_GRIDDISPLAY
 70
     3
102
VTR_0.333_0.500_0.667_1.000_GRIDMAJOR
 70
     5
102
VTR_0.333_0.500_0.667_1.000_DEFAULTLIGHTING
280
     1
102
VTR_0.333_0.500_0.667_1.000_DEFAULTLIGHTINGTYPE
 70
     1
102
VTR_0.333_0.500_0.667_1.000_BRIGHTNESS
141
0.0
102
VTR_0.333_0.500_0.667_1.000_CONTRAST
142
0.0
102
VTR_0.333_0.000_0.667_0.500_VISUALSTYLE
340
2F
102
VTR_0.333_0.000_0.667_0.500_GRIDDISPLAY
 70
     3
102
VTR_0.333_0.000_0.667_0.500_GRIDMAJOR
 70
     5
102
VTR_0.333_0.000_0.667_0.500_DEFAULTLIGHTING
280
     1
102
VTR_0.333_0.000_0.667_0.500_DEFAULTLIGHTINGTYPE
 70
     1
102
VTR_0.333_0.000_0.667_0.500_BRIGHTNESS
141
0.0
102
VTR_0.333_0.000_0.667_0.500_CONTRAST
142
0.0
102
VTR_0.667_0.500_1.000_1.000_VISUALSTYLE
340
2F
102
VTR_0.667_0.500_1.000_1.000_GRIDDISPLAY
 70
     3
102
VTR_0.667_0.500_1.000_1.000_GRIDMAJOR
 70
     5
102
VTR_0.667_0.500_1.000_1.000_DEFAULTLIGHTING
280
     1
102
VTR_0.667_0.500_1.000_1.000_DEFAULTLIGHTINGTYPE
 70
     1
102
VTR_0.667_0.500_1.000_1.000_BRIGHTNESS
141
0.0
102
VTR_0.667_0.500_1.000_1.000_CONTRAST
142
0.0
102
VTR_0.667_0.000_1.000_0.500_VISUALSTYLE
340
2F
102
VTR_0.667_0.000_1.000_0.500_GRIDDISPLAY
 70
     3
102
VTR_0.667_0.000_1.000_0.500_GRIDMAJOR
 70
     5
102
VTR_0.667_0.000_1.000_0.500_DEFAULTLIGHTING
280
     1
102
VTR_0.667_0.000_1.000_0.500_DEFAULTLIGHTINGTYPE
 70
     1
102
VTR_0.667_0.000_1.000_0.500_BRIGHTNESS
141
0.0
102
VTR_0.667_0.000_1.000_0.500_CONTRAST
142
0.0
  0
LAYOUT
  5
1E
102
{ACAD_REACTORS
330
1A
102
}
330
1A
100
AcDbPlotSettings
  1

  2
none_device
  4

  6

 40
0.0
 41
0.0
 42
0.0
 43
0.0
 44
0.0
 45
0.0
 46
0.0
 47
0.0
 48
0.0
 49
0.0
140
0.0
141
0.0
142
1.0
143
1.0
 70
   688
 72
     0
 73
     0
 74
     5
  7

 75
    16
 76
     0
 77
     2
 78
   300
147
1.0
148
0.0
149
0.0
100
AcDbLayout
  1
Layout1
 70
     1
 71
     1
 10
-0.5
 20
-0.5
 11
5.0
 21
5.0
 12
0.0
 22
0.0
 32
0.0
 14
-0.5
 24
-0.5
 34
-0.5
 15
5.0
 25
5.0
 35
5.0
146
0.0
 13
0.0
 23
0.0
 33
0.0
 16
1.0
 26
0.0
 36
0.0
 17
0.0
 27
1.0
 37
0.0
 76
     0
330
1B
  0
LAYOUT
  5
26
102
{ACAD_REACTORS
330
1A
102
}
330
1A
100
AcDbPlotSettings
  1

  2
none_device
  4

  6

 40
0.0
 41
0.0
 42
0.0
 43
0.0
 44
0.0
 45
0.0
 46
0.0
 47
0.0
 48
0.0
 49
0.0
140
0.0
141
0.0
142
1.0
143
1.0
 70
   688
 72
     0
 73
     0
 74
     5
  7

 75
    16
 76
     0
 77
     2
 78
   300
147
1.0
148
0.0
149
0.0
100
AcDbLayout
  1
Layout2
 70
     1
 71
     2
 10
0.0
 20
0.0
 11
0.0
 21
0.0
 12
0.0
 22
0.0
 32
0.0
 14
0.0
 24
0.0
 34
0.0
 15
0.0
 25
0.0
 35
0.0
146
0.0
 13
0.0
 23
0.0
 33
0.0
 16
1.0
 26
0.0
 36
0.0
 17
0.0
 27
1.0
 37
0.0
 76
     0
330
23
  0
LAYOUT
  5
22
102
{ACAD_REACTORS
330
1A
102
}
330
1A
100
AcDbPlotSettings
  1

  2
none_device
  4
Letter_(8.50_x_11.00_Inches)
  6

 40
6.35
 41
6.35
 42
6.350005
 43
6.350005
 44
215.9
 45
279.4
 46
0.0
 47
0.0
 48
0.0
 49
0.0
140
0.0
141
0.0
142
1.0
143
1.0
 70
  1712
 72
     0
 73
     0
 74
     0
  7

 75
     0
 76
     0
 77
     2
 78
   300
147
1.0
148
0.0
149
0.0
100
AcDbLayout
  1
Model
 70
     1
 71
     0
 10
-0.5
 20
-0.5
 11
5.0
 21
5.0
 12
0.0
 22
0.0
 32
0.0
 14
-0.5
 24
-0.5
 34
-0.5
 15
5.0
 25
5.0
 35
5.0
146
0.0
 13
0.0
 23
0.0
 33
0.0
 16
1.0
 26
0.0
 36
0.0
 17
0.0
 27
1.0
 37
0.0
 76
     0
330
1F
331
29
  0
MATERIAL
  5
45
102
{ACAD_REACTORS
330
43
102
}
102
{ACAD_XDICTIONARY
360
168
102
}
330
43
100
AcDbMaterial
  1
ByBlock
  0
MATERIAL
  5
44
102
{ACAD_REACTORS
330
43
102
}
102
{ACAD_XDICTIONARY
360
166
102
}
330
43
100
AcDbMaterial
  1
ByLayer
  0
MATERIAL
  5
46
102
{ACAD_REACTORS
330
43
102
}
102
{ACAD_XDICTIONARY
360
16A
102
}
330
43
100
AcDbMaterial
  1
Global
  0
MLEADERSTYLE
  5
6C
102
{ACAD_REACTORS
330
6B
102
}
102
{ACAD_XDICTIONARY
360
170
102
}
330
6B
100
AcDbMLeaderStyle
170
     2
171
     1
172
     0
 90
        2
 40
0.0
 41
0.0
173
     1
 91
-1056964608
340
14
 92
       -2
290
     1
 42
0.09
291
     1
 43
0.36
  3
Standard
341
0
 44
0.18
300

342
11
174
     1
178
     6
175
     1
176
     0
 93
-1056964608
 45
0.18
292
     0
297
     0
 46
0.18
343
0
 94
-1056964608
 47
1.0
 49
1.0
140
1.0
293
     1
141
0.0
294
     1
177
     0
142
1.0
295
     0
296
     0
143
0.125
1001
ACAD_MLEADERVER
1070
     2
  0
MLINESTYLE
  5
18
102
{ACAD_REACTORS
330
17
102
}
330
17
100
AcDbMlineStyle
  2
Standard
 70
     0
  3

 62
   256
 51
90.0
 52
90.0
 71
     2
 49
0.5
 62
   256
  6
BYLAYER
 49
-0.5
 62
   256
  6
BYLAYER
  0
ACDBPLACEHOLDER
  5
F
102
{ACAD_REACTORS
330
E
102
}
330
E
  0
SCALE
  5
48
102
{ACAD_REACTORS
330
47
102
}
330
47
100
AcDbScale
 70
     0
300
1:1
140
1.0
141
1.0
290
     1
  0
SCALE
  5
49
102
{ACAD_REACTORS
330
47
102
}
330
47
100
AcDbScale
 70
     0
300
1:2
140
1.0
141
2.0
290
     0
  0
SCALE
  5
4A
102
{ACAD_REACTORS
330
47
102
}
330
47
100
AcDbScale
 70
     0
300
1:4
140
1.0
141
4.0
290
     0
  0
SCALE
  5
4B
102
{ACAD_REACTORS
330
47
102
}
330
47
100
AcDbScale
 70
     0
300
1:5
140
1.0
141
5.0
290
     0
  0
SCALE
  5
4C
102
{ACAD_REACTORS
330
47
102
}
330
47
100
AcDbScale
 70
     0
300
1:8
140
1.0
141
8.0
290
     0
  0
SCALE
  5
4D
102
{ACAD_REACTORS
330
47
102
}
330
47
100
AcDbScale
 70
     0
300
1:10
140
1.0
141
10.0
290
     0
  0
SCALE
  5
4E
102
{ACAD_REACTORS
330
47
102
}
330
47
100
AcDbScale
 70
     0
300
1:16
140
1.0
141
16.0
290
     0
  0
SCALE
  5
4F
102
{ACAD_REACTORS
330
47
102
}
330
47
100
AcDbScale
 70
     0
300
1:20
140
1.0
141
20.0
290
     0
  0
SCALE
  5
50
102
{ACAD_REACTORS
330
47
102
}
330
47
100
AcDbScale
 70
     0
300
1:30
140
1.0
141
30.0
290
     0
  0
SCALE
  5
51
102
{ACAD_REACTORS
330
47
102
}
330
47
100
AcDbScale
 70
     0
300
1:40
140
1.0
141
40.0
290
     0
  0
SCALE
  5
52
102
{ACAD_REACTORS
330
47
102
}
330
47
100
AcDbScale
 70
     0
300
1:50
140
1.0
141
50.0
290
     0
  0
SCALE
  5
53
102
{ACAD_REACTORS
330
47
102
}
330
47
100
AcDbScale
 70
     0
300
1:100
140
1.0
141
100.0
290
     0
  0
SCALE
  5
54
102
{ACAD_REACTORS
330
47
102
}
330
47
100
AcDbScale
 70
     0
300
2:1
140
2.0
141
1.0
290
     0
  0
SCALE
  5
55
102
{ACAD_REACTORS
330
47
102
}
330
47
100
AcDbScale
 70
     0
300
4:1
140
4.0
141
1.0
290
     0
  0
SCALE
  5
56
102
{ACAD_REACTORS
330
47
102
}
330
47
100
AcDbScale
 70
     0
300
8:1
140
8.0
141
1.0
290
     0
  0
SCALE
  5
57
102
{ACAD_REACTORS
330
47
102
}
330
47
100
AcDbScale
 70
     0
300
10:1
140
10.0
141
1.0
290
     0
  0
SCALE
  5
58
102
{ACAD_REACTORS
330
47
102
}
330
47
100
AcDbScale
 70
     0
300
100:1
140
100.0
141
1.0
290
     0
  0
SCALE
  5
59
102
{ACAD_REACTORS
330
47
102
}
330
47
100
AcDbScale
 70
     0
300
1/128" = 1'-0"
140
0.007812
141
12.0
290
     0
  0
SCALE
  5
5A
102
{ACAD_REACTORS
330
47
102
}
330
47
100
AcDbScale
 70
     0
300
1/64" = 1'-0"
140
0.015625
141
12.0
290
     0
  0
SCALE
  5
5B
102
{ACAD_REACTORS
330
47
102
}
330
47
100
AcDbScale
 70
     0
300
1/32" = 1'-0"
140
0.03125
141
12.0
290
     0
  0
SCALE
  5
5C
102
{ACAD_REACTORS
330
47
102
}
330
47
100
AcDbScale
 70
     0
300
1/16" = 1'-0"
140
0.0625
141
12.0
290
     0
  0
SCALE
  5
5D
102
{ACAD_REACTORS
330
47
102
}
330
47
100
AcDbScale
 70
     0
300
3/32" = 1'-0"
140
0.09375
141
12.0
290
     0
  0
SCALE
  5
5E
102
{ACAD_REACTORS
330
47
102
}
330
47
100
AcDbScale
 70
     0
300
1/8" = 1'-0"
140
0.125
141
12.0
290
     0
  0
SCALE
  5
5F
102
{ACAD_REACTORS
330
47
102
}
330
47
100
AcDbScale
 70
     0
300
3/16" = 1'-0"
140
0.1875
141
12.0
290
     0
  0
SCALE
  5
60
102
{ACAD_REACTORS
330
47
102
}
330
47
100
AcDbScale
 70
     0
300
1/4" = 1'-0"
140
0.25
141
12.0
290
     0
  0
SCALE
  5
61
102
{ACAD_REACTORS
330
47
102
}
330
47
100
AcDbScale
 70
     0
300
3/8" = 1'-0"
140
0.375
141
12.0
290
     0
  0
SCALE
  5
62
102
{ACAD_REACTORS
330
47
102
}
330
47
100
AcDbScale
 70
     0
300
1/2" = 1'-0"
140
0.5
141
12.0
290
     0
  0
SCALE
  5
63
102
{ACAD_REACTORS
330
47
102
}
330
47
100
AcDbScale
 70
     0
300
3/4" = 1'-0"
140
0.75
141
12.0
290
     0
  0
SCALE
  5
64
102
{ACAD_REACTORS
330
47
102
}
330
47
100
AcDbScale
 70
     0
300
1" = 1'-0"
140
1.0
141
12.0
290
     0
  0
SCALE
  5
65
102
{ACAD_REACTORS
330
47
102
}
330
47
100
AcDbScale
 70
     0
300
1-1/2" = 1'-0"
140
1.5
141
12.0
290
     0
  0
SCALE
  5
66
102
{ACAD_REACTORS
330
47
102
}
330
47
100
AcDbScale
 70
     0
300
3" = 1'-0"
140
3.0
141
12.0
290
     0
  0
SCALE
  5
67
102
{ACAD_REACTORS
330
47
102
}
330
47
100
AcDbScale
 70
     0
300
6" = 1'-0"
140
6.0
141
12.0
290
     0
  0
SCALE
  5
68
102
{ACAD_REACTORS
330
47
102
}
330
47
100
AcDbScale
 70
     0
300
1'-0" = 1'-0"
140
12.0
141
12.0
290
     0
  0
TABLESTYLE
  5
6A
102
{ACAD_REACTORS
330
69
102
}
102
{ACAD_XDICTIONARY
360
16C
102
}
330
69
100
AcDbTableStyle
  3
Standard
 70
     0
 71
     0
 40
0.06
 41
0.06
280
     0
281
     0
  7
Standard
140
0.18
170
     2
 62
     0
 63
   257
283
     0
274
    -2
284
     1
 64
     0
275
    -2
285
     1
 65
     0
276
    -2
286
     1
 66
     0
277
    -2
287
     1
 67
     0
278
    -2
288
     1
 68
     0
279
    -2
289
     1
 69
     0
  7
Standard
140
0.25
170
     5
 62
     0
 63
   257
283
     0
274
    -2
284
     1
 64
     0
275
    -2
285
     1
 65
     0
276
    -2
286
     1
 66
     0
277
    -2
287
     1
 67
     0
278
    -2
288
     1
 68
     0
279
    -2
289
     1
 69
     0
  7
Standard
140
0.18
170
     5
 62
     0
 63
   257
283
     0
274
    -2
284
     1
 64
     0
275
    -2
285
     1
 65
     0
276
    -2
286
     1
 66
     0
277
    -2
287
     1
 67
     0
278
    -2
288
     1
 68
     0
279
    -2
289
     1
 69
     0
  0
VISUALSTYLE
  5
2F
102
{ACAD_REACTORS
330
2A
102
}
102
{ACAD_XDICTIONARY
360
13E
102
}
330
2A
100
AcDbVisualStyle
  2
2dWireframe
 70
     4
 71
     0
 72
     2
 73
     0
 90
        0
 40
0.6
 41
30.0
 62
     5
 63
     7
421
 16777215
 74
     1
 91
        4
 64
     7
 65
   257
 75
     1
175
     1
 42
1.0
 92
        0
 66
   257
 43
1.0
 76
     1
 77
     6
 78
     2
 67
     7
 79
     5
170
     0
171
     0
290
     0
174
     0
 93
        1
 44
0.0
173
     0
291
     0
 45
0.0
1001
ACAD
1000
AcDbSavedByObjectVersion
1070
     0
  0
VISUALSTYLE
  5
32
102
{ACAD_REACTORS
330
2A
102
}
102
{ACAD_XDICTIONARY
360
144
102
}
330
2A
100
AcDbVisualStyle
  2
Basic
 70
     7
 71
     1
 72
     0
 73
     1
 90
        0
 40
0.6
 41
30.0
 62
     5
 63
     7
421
 16777215
 74
     0
 91
        4
 64
     7
 65
   257
 75
     1
175
     1
 42
1.0
 92
        8
 66
     7
 43
1.0
 76
     1
 77
     6
 78
     2
 67
     7
 79
     5
170
     0
171
     0
290
     0
174
     0
 93
        1
 44
0.0
173
     0
291
     1
 45
0.0
1001
ACAD
1000
AcDbSavedByObjectVersion
1070
     0
  0
VISUALSTYLE
  5
36
102
{ACAD_REACTORS
330
2A
102
}
102
{ACAD_XDICTIONARY
360
14C
102
}
330
2A
100
AcDbVisualStyle
  2
Brighten
 70
    12
 71
     2
 72
     2
 73
     0
 90
        0
 40
0.6
 41
30.0
 62
     5
 63
     7
421
 16777215
 74
     1
 91
        4
 64
     7
 65
   257
 75
     1
175
     1
 42
1.0
 92
        8
 66
     7
 43
1.0
 76
     1
 77
     6
 78
     2
 67
     7
 79
     5
170
     0
171
     0
290
     0
174
     0
 93
        1
 44
50.0
173
     0
291
     1
 45
0.0
1001
ACAD
1000
AcDbSavedByObjectVersion
1070
     0
  0
VISUALSTYLE
  5
3A
102
{ACAD_REACTORS
330
2A
102
}
102
{ACAD_XDICTIONARY
360
154
102
}
330
2A
100
AcDbVisualStyle
  2
ColorChange
 70
    16
 71
     2
 72
     2
 73
     3
 90
        0
 40
0.6
 41
30.0
 62
     5
 63
     8
421
  8421504
 74
     1
 91
        4
 64
     7
 65
   257
 75
     1
175
     1
 42
1.0
 92
        8
 66
     8
424
  8421504
 43
1.0
 76
     1
 77
     6
 78
     2
 67
     7
 79
     5
170
     0
171
     0
290
     0
174
     0
 93
        1
 44
0.0
173
     0
291
     1
 45
0.0
1001
ACAD
1000
AcDbSavedByObjectVersion
1070
     0
  0
VISUALSTYLE
  5
34
102
{ACAD_REACTORS
330
2A
102
}
102
{ACAD_XDICTIONARY
360
148
102
}
330
2A
100
AcDbVisualStyle
  2
Conceptual
 70
     9
 71
     3
 72
     2
 73
     0
 90
        0
 40
0.6
 41
30.0
 62
     5
 63
     7
421
 16777215
 74
     2
 91
        2
 64
     7
 65
   257
 75
     1
175
     1
 42
179.0
 92
        8
 66
     7
 43
1.0
 76
     1
 77
     6
 78
     2
 67
     7
 79
     3
170
     0
171
     0
290
     0
174
     0
 93
        1
 44
0.0
173
     0
291
     0
 45
0.0
1001
ACAD
1000
AcDbSavedByObjectVersion
1070
     0
  0
VISUALSTYLE
  5
35
102
{ACAD_REACTORS
330
2A
102
}
102
{ACAD_XDICTIONARY
360
14A
102
}
330
2A
100
AcDbVisualStyle
  2
Dim
 70
    11
 71
     2
 72
     2
 73
     0
 90
        0
 40
0.6
 41
30.0
 62
     5
 63
     7
421
 16777215
 74
     1
 91
        4
 64
     7
 65
   257
 75
     1
175
     1
 42
1.0
 92
        8
 66
     7
 43
1.0
 76
     1
 77
     6
 78
     2
 67
     7
 79
     5
170
     0
171
     0
290
     0
174
     0
 93
        1
 44
-50.0
173
     0
291
     1
 45
0.0
1001
ACAD
1000
AcDbSavedByObjectVersion
1070
     0
  0
VISUALSTYLE
  5
3D
102
{ACAD_REACTORS
330
2A
102
}
102
{ACAD_XDICTIONARY
360
15A
102
}
330
2A
100
AcDbVisualStyle
  2
EdgeColorOff
 70
    22
 71
     2
 72
     2
 73
     0
 90
        0
 40
0.6
 41
30.0
 62
     5
 63
     7
421
 16777215
 74
     1
 91
        4
 64
     7
 65
   257
 75
     1
175
     1
 42
1.0
 92
        8
 66
     7
 43
1.0
 76
     1
 77
     6
 78
     2
 67
     7
 79
     5
170
     0
171
     0
290
     0
174
     0
 93
        1
 44
0.0
173
     0
291
     1
 45
0.0
1001
ACAD
1000
AcDbSavedByObjectVersion
1070
     0
  0
VISUALSTYLE
  5
39
102
{ACAD_REACTORS
330
2A
102
}
102
{ACAD_XDICTIONARY
360
152
102
}
330
2A
100
AcDbVisualStyle
  2
Facepattern
 70
    15
 71
     2
 72
     2
 73
     0
 90
        0
 40
0.6
 41
30.0
 62
     5
 63
     7
421
 16777215
 74
     1
 91
        4
 64
     7
 65
   257
 75
     1
175
     1
 42
1.0
 92
        8
 66
     7
 43
1.0
 76
     1
 77
     6
 78
     2
 67
     7
 79
     5
170
     0
171
     0
290
     0
174
     0
 93
        1
 44
0.0
173
     0
291
     1
 45
0.0
1001
ACAD
1000
AcDbSavedByObjectVersion
1070
     0
  0
VISUALSTYLE
  5
2B
102
{ACAD_REACTORS
330
2A
102
}
102
{ACAD_XDICTIONARY
360
136
102
}
330
2A
100
AcDbVisualStyle
  2
Flat
 70
     0
 71
     2
 72
     1
 73
     1
 90
        2
 40
0.6
 41
30.0
 62
     5
 63
     7
421
 16777215
 74
     0
 91
        0
 64
     7
 65
   257
 75
     1
175
     1
 42
1.0
 92
        8
 66
     7
 43
1.0
 76
     1
 77
     6
 78
     2
 67
     7
 79
     5
170
     0
171
     0
290
     0
174
     0
 93
       13
 44
0.0
173
     0
291
     1
 45
0.0
1001
ACAD
1000
AcDbSavedByObjectVersion
1070
     0
  0
VISUALSTYLE
  5
2C
102
{ACAD_REACTORS
330
2A
102
}
102
{ACAD_XDICTIONARY
360
138
102
}
330
2A
100
AcDbVisualStyle
  2
FlatWithEdges
 70
     1
 71
     2
 72
     1
 73
     1
 90
        2
 40
0.6
 41
30.0
 62
     5
 63
     7
421
 16777215
 74
     1
 91
        0
 64
     7
 65
   257
 75
     1
175
     1
 42
1.0
 92
        0
 66
   257
 43
1.0
 76
     1
 77
     6
 78
     2
 67
     7
 79
     5
170
     0
171
     0
290
     0
174
     0
 93
       13
 44
0.0
173
     0
291
     1
 45
0.0
1001
ACAD
1000
AcDbSavedByObjectVersion
1070
     0
  0
VISUALSTYLE
  5
2D
102
{ACAD_REACTORS
330
2A
102
}
102
{ACAD_XDICTIONARY
360
13A
102
}
330
2A
100
AcDbVisualStyle
  2
Gouraud
 70
     2
 71
     2
 72
     2
 73
     1
 90
        2
 40
0.6
 41
30.0
 62
     5
 63
     7
421
 16777215
 74
     0
 91
        0
 64
     7
 65
   257
 75
     1
175
     1
 42
1.0
 92
        0
 66
     7
 43
1.0
 76
     1
 77
     6
 78
     2
 67
     7
 79
     5
170
     0
171
     0
290
     0
174
     0
 93
       13
 44
0.0
173
     0
291
     1
 45
0.0
1001
ACAD
1000
AcDbSavedByObjectVersion
1070
     0
  0
VISUALSTYLE
  5
2E
102
{ACAD_REACTORS
330
2A
102
}
102
{ACAD_XDICTIONARY
360
13C
102
}
330
2A
100
AcDbVisualStyle
  2
GouraudWithEdges
 70
     3
 71
     2
 72
     2
 73
     1
 90
        2
 40
0.6
 41
30.0
 62
     5
 63
     7
421
 16777215
 74
     1
 91
        0
 64
     7
 65
   257
 75
     1
175
     1
 42
1.0
 92
        0
 66
   257
 43
1.0
 76
     1
 77
     6
 78
     2
 67
     7
 79
     5
170
     0
171
     0
290
     0
174
     0
 93
       13
 44
0.0
173
     0
291
     1
 45
0.0
1001
ACAD
1000
AcDbSavedByObjectVersion
1070
     0
  0
VISUALSTYLE
  5
31
102
{ACAD_REACTORS
330
2A
102
}
102
{ACAD_XDICTIONARY
360
142
102
}
330
2A
100
AcDbVisualStyle
  2
Hidden
 70
     6
 71
     1
 72
     2
 73
     2
 90
        0
 40
0.6
 41
30.0
 62
     5
 63
     7
421
 16777215
 74
     2
 91
        2
 64
     7
 65
   257
 75
     2
175
     1
 42
40.0
 92
        0
 66
   257
 43
1.0
 76
     1
 77
     6
 78
     2
 67
     7
 79
     3
170
     0
171
     0
290
     0
174
     0
 93
        1
 44
0.0
173
     0
291
     0
 45
0.0
1001
ACAD
1000
AcDbSavedByObjectVersion
1070
     0
  0
VISUALSTYLE
  5
3B
102
{ACAD_REACTORS
330
2A
102
}
102
{ACAD_XDICTIONARY
360
156
102
}
330
2A
100
AcDbVisualStyle
  2
JitterOff
 70
    20
 71
     2
 72
     2
 73
     0
 90
        0
 40
0.6
 41
30.0
 62
     5
 63
     7
421
 16777215
 74
     1
 91
        4
 64
     7
 65
   257
 75
     1
175
     1
 42
1.0
 92
       10
 66
     7
 43
1.0
 76
     1
 77
     6
 78
     2
 67
     7
 79
     5
170
     0
171
     0
290
     0
174
     0
 93
        1
 44
0.0
173
     0
291
     1
 45
0.0
1001
ACAD
1000
AcDbSavedByObjectVersion
1070
     0
  0
VISUALSTYLE
  5
38
102
{ACAD_REACTORS
330
2A
102
}
102
{ACAD_XDICTIONARY
360
150
102
}
330
2A
100
AcDbVisualStyle
  2
Linepattern
 70
    14
 71
     2
 72
     2
 73
     0
 90
        0
 40
0.6
 41
30.0
 62
     5
 63
     7
421
 16777215
 74
     1
 91
        4
 64
     7
 65
   257
 75
     7
175
     7
 42
1.0
 92
        8
 66
     7
 43
1.0
 76
     1
 77
     6
 78
     2
 67
     7
 79
     5
170
     0
171
     0
290
     0
174
     0
 93
        1
 44
0.0
173
     0
291
     1
 45
0.0
1001
ACAD
1000
AcDbSavedByObjectVersion
1070
     0
  0
VISUALSTYLE
  5
3C
102
{ACAD_REACTORS
330
2A
102
}
102
{ACAD_XDICTIONARY
360
158
102
}
330
2A
100
AcDbVisualStyle
  2
OverhangOff
 70
    21
 71
     2
 72
     2
 73
     0
 90
        0
 40
0.6
 41
30.0
 62
     5
 63
     7
421
 16777215
 74
     1
 91
        4
 64
     7
 65
   257
 75
     1
175
     1
 42
1.0
 92
        9
 66
     7
 43
1.0
 76
     1
 77
     6
 78
     2
 67
     7
 79
     5
170
     0
171
     0
290
     0
174
     0
 93
        1
 44
0.0
173
     0
291
     1
 45
0.0
1001
ACAD
1000
AcDbSavedByObjectVersion
1070
     0
  0
VISUALSTYLE
  5
33
102
{ACAD_REACTORS
330
2A
102
}
102
{ACAD_XDICTIONARY
360
146
102
}
330
2A
100
AcDbVisualStyle
  2
Realistic
 70
     8
 71
     2
 72
     3
 73
     0
 90
        2
 40
0.6
 41
30.0
 62
     5
 63
     7
421
 16777215
 74
     0
 91
        0
 64
     7
 65
   257
 75
     1
175
     1
 42
1.0
 92
        8
 66
   257
 43
1.0
 76
     1
 77
     6
 78
     2
 67
     7
 79
     3
170
     0
171
     0
290
     0
174
     0
 93
       13
 44
0.0
173
     0
291
     0
 45
0.0
1001
ACAD
1000
AcDbSavedByObjectVersion
1070
     0
  0
VISUALSTYLE
  5
42
102
{ACAD_REACTORS
330
2A
102
}
102
{ACAD_XDICTIONARY
360
164
102
}
330
2A
100
AcDbVisualStyle
  2
Shaded
 70
    27
 71
     2
 72
     2
 73
     1
 90
        2
 40
0.6
 41
30.0
 62
     5
 63
     7
421
 16777215
 74
     0
 91
        4
 64
     7
 65
   257
 75
     1
175
     1
 42
1.0
 92
        8
 66
   257
 43
1.0
 76
     1
 77
     6
 78
     2
 67
     8
425
  7895160
 79
     3
170
     0
171
     0
290
     0
174
     0
 93
        5
 44
0.0
173
     0
291
     0
 45
0.0
1001
ACAD
1000
AcDbSavedByObjectVersion
1070
     0
  0
VISUALSTYLE
  5
41
102
{ACAD_REACTORS
330
2A
102
}
102
{ACAD_XDICTIONARY
360
162
102
}
330
2A
100
AcDbVisualStyle
  2
Shaded with edges
 70
    26
 71
     2
 72
     2
 73
     1
 90
        2
 40
0.6
 41
30.0
 62
     5
 63
     7
421
 16777215
 74
     1
 91
       10
 64
     7
 65
   257
 75
     2
175
     1
 42
1.0
 92
        8
 66
   257
 43
1.0
 76
     1
 77
     6
 78
     2
 67
     7
 79
     3
170
     0
171
     0
290
     0
174
     0
 93
        5
 44
0.0
173
     0
291
     0
 45
0.0
1001
ACAD
1000
AcDbSavedByObjectVersion
1070
     0
  0
VISUALSTYLE
  5
3E
102
{ACAD_REACTORS
330
2A
102
}
102
{ACAD_XDICTIONARY
360
15C
102
}
330
2A
100
AcDbVisualStyle
  2
Shades of Gray
 70
    23
 71
     2
 72
     2
 73
     3
 90
        0
 40
0.6
 41
30.0
 62
     5
 63
     7
421
 16777215
 74
     2
 91
        2
 64
     7
 65
     7
 75
     1
175
     1
 42
40.0
 92
        8
 66
     7
 43
1.0
 76
     1
 77
     6
 78
     2
 67
     7
 79
     3
170
     0
171
     0
290
     0
174
     0
 93
        1
 44
0.0
173
     0
291
     0
 45
0.0
1001
ACAD
1000
AcDbSavedByObjectVersion
1070
     0
  0
VISUALSTYLE
  5
3F
102
{ACAD_REACTORS
330
2A
102
}
102
{ACAD_XDICTIONARY
360
15E
102
}
330
2A
100
AcDbVisualStyle
  2
Sketchy
 70
    24
 71
     1
 72
     2
 73
     2
 90
        0
 40
0.6
 41
30.0
 62
     5
 63
     7
421
 16777215
 74
     2
 91
        2
 64
     7
 65
     7
 75
     1
175
     1
 42
40.0
 92
       11
 66
     7
 43
1.0
 76
     1
 77
     6
 78
     2
 67
     7
 79
     6
170
     0
171
     0
290
     0
174
     0
 93
        1
 44
0.0
173
     0
291
     0
 45
0.0
1001
ACAD
1000
AcDbSavedByObjectVersion
1070
     0
  0
VISUALSTYLE
  5
37
102
{ACAD_REACTORS
330
2A
102
}
102
{ACAD_XDICTIONARY
360
14E
102
}
330
2A
100
AcDbVisualStyle
  2
Thicken
 70
    13
 71
     2
 72
     2
 73
     0
 90
        0
 40
0.6
 41
30.0
 62
     5
 63
     7
421
 16777215
 74
     1
 91
        4
 64
     7
 65
   257
 75
     1
175
     1
 42
1.0
 92
       12
 66
     7
 43
1.0
 76
     1
 77
     6
 78
     2
 67
     7
 79
     5
170
     0
171
     0
290
     0
174
     0
 93
        1
 44
0.0
173
     0
291
     1
 45
0.0
1001
ACAD
1000
AcDbSavedByObjectVersion
1070
     0
  0
VISUALSTYLE
  5
30
102
{ACAD_REACTORS
330
2A
102
}
102
{ACAD_XDICTIONARY
360
140
102
}
330
2A
100
AcDbVisualStyle
  2
Wireframe
 70
     5
 71
     0
 72
     2
 73
     0
 90
        0
 40
0.6
 41
30.0
 62
     5
 63
     7
421
 16777215
 74
     1
 91
        4
 64
     7
 65
   257
 75
     1
175
     1
 42
1.0
 92
        0
 66
   257
 43
1.0
 76
     1
 77
     6
 78
     2
 67
     7
 79
     3
170
     0
171
     0
290
     0
174
     0
 93
        1
 44
0.0
173
     0
291
     0
 45
0.0
1001
ACAD
1000
AcDbSavedByObjectVersion
1070
     0
  0
VISUALSTYLE
  5
40
102
{ACAD_REACTORS
330
2A
102
}
102
{ACAD_XDICTIONARY
360
160
102
}
330
2A
100
AcDbVisualStyle
  2
X-Ray
 70
    25
 71
     2
 72
     2
 73
     1
 90
        1
 40
0.5
 41
30.0
 62
     5
 63
     7
421
 16777215
 74
     1
 91
        0
 64
     7
 65
   257
 75
     1
175
     1
 42
1.0
 92
        8
 66
     7
 43
1.0
 76
     1
 77
     6
 78
     2
 67
     7
 79
     3
170
     0
171
     0
290
     0
174
     0
 93
       13
 44
0.0
173
     0
291
     0
 45
0.0
1001
ACAD
1000
AcDbSavedByObjectVersion
1070
     0
  0
DICTIONARYVAR
  5
133
102
{ACAD_REACTORS
330
132
102
}
330
132
100
DictionaryVariables
280
     0
  1
1:1
  0
DICTIONARYVAR
  5
174
102
{ACAD_REACTORS
330
132
102
}
330
132
100
DictionaryVariables
280
     0
  1
Standard
  0
DICTIONARYVAR
  5
173
102
{ACAD_REACTORS
330
132
102
}
330
132
100
DictionaryVariables
280
     0
  1
Standard
  0
DICTIONARYVAR
  5
134
102
{ACAD_REACTORS
330
132
102
}
330
132
100
DictionaryVariables
280
     0
  1
1
  0
DICTIONARYVAR
  5
135
102
{ACAD_REACTORS
330
132
102
}
330
132
100
DictionaryVariables
280
     0
  1
2
  0
DICTIONARY
  5
168
330
45
100
AcDbDictionary
280
     1
281
     1
  3
ACAD_XREC_ROUNDTRIP
360
169
  0
DICTIONARY
  5
166
330
44
100
AcDbDictionary
280
     1
281
     1
  3
ACAD_XREC_ROUNDTRIP
360
167
  0
DICTIONARY
  5
16A
330
46
100
AcDbDictionary
280
     1
281
     1
  3
ACAD_XREC_ROUNDTRIP
360
16B
  0
DICTIONARY
  5
170
330
6C
100
AcDbDictionary
280
     1
281
     1
  3
ACAD_XREC_ROUNDTRIP
360
171
  0
DICTIONARY
  5
16C
330
6A
100
AcDbDictionary
280
     1
281
     1
  3
ACAD_ROUNDTRIP_2008_TABLESTYLE_CELLSTYLEMAP
360
16E
  3
ACAD_XREC_ROUNDTRIP
360
16D
  0
DICTIONARY
  5
13E
330
2F
100
AcDbDictionary
280
     1
281
     1
  3
ACAD_XREC_ROUNDTRIP
360
13F
  0
DICTIONARY
  5
144
330
32
100
AcDbDictionary
280
     1
281
     1
  3
ACAD_XREC_ROUNDTRIP
360
145
  0
DICTIONARY
  5
14C
330
36
100
AcDbDictionary
280
     1
281
     1
  3
ACAD_XREC_ROUNDTRIP
360
14D
  0
DICTIONARY
  5
154
330
3A
100
AcDbDictionary
280
     1
281
     1
  3
ACAD_XREC_ROUNDTRIP
360
155
  0
DICTIONARY
  5
148
330
34
100
AcDbDictionary
280
     1
281
     1
  3
ACAD_XREC_ROUNDTRIP
360
149
  0
DICTIONARY
  5
14A
330
35
100
AcDbDictionary
280
     1
281
     1
  3
ACAD_XREC_ROUNDTRIP
360
14B
  0
DICTIONARY
  5
15A
330
3D
100
AcDbDictionary
280
     1
281
     1
  3
ACAD_XREC_ROUNDTRIP
360
15B
  0
DICTIONARY
  5
152
330
39
100
AcDbDictionary
280
     1
281
     1
  3
ACAD_XREC_ROUNDTRIP
360
153
  0
DICTIONARY
  5
136
330
2B
100
AcDbDictionary
280
     1
281
     1
  3
ACAD_XREC_ROUNDTRIP
360
137
  0
DICTIONARY
  5
138
330
2C
100
AcDbDictionary
280
     1
281
     1
  3
ACAD_XREC_ROUNDTRIP
360
139
  0
DICTIONARY
  5
13A
330
2D
100
AcDbDictionary
280
     1
281
     1
  3
ACAD_XREC_ROUNDTRIP
360
13B
  0
DICTIONARY
  5
13C
330
2E
100
AcDbDictionary
280
     1
281
     1
  3
ACAD_XREC_ROUNDTRIP
360
13D
  0
DICTIONARY
  5
142
330
31
100
AcDbDictionary
280
     1
281
     1
  3
ACAD_XREC_ROUNDTRIP
360
143
  0
DICTIONARY
  5
156
330
3B
100
AcDbDictionary
280
     1
281
     1
  3
ACAD_XREC_ROUNDTRIP
360
157
  0
DICTIONARY
  5
150
330
38
100
AcDbDictionary
280
     1
281
     1
  3
ACAD_XREC_ROUNDTRIP
360
151
  0
DICTIONARY
  5
158
330
3C
100
AcDbDictionary
280
     1
281
     1
  3
ACAD_XREC_ROUNDTRIP
360
159
  0
DICTIONARY
  5
146
330
33
100
AcDbDictionary
280
     1
281
     1
  3
ACAD_XREC_ROUNDTRIP
360
147
  0
DICTIONARY
  5
164
330
42
100
AcDbDictionary
280
     1
281
     1
  3
ACAD_XREC_ROUNDTRIP
360
165
  0
DICTIONARY
  5
162
330
41
100
AcDbDictionary
280
     1
281
     1
  3
ACAD_XREC_ROUNDTRIP
360
163
  0
DICTIONARY
  5
15C
330
3E
100
AcDbDictionary
280
     1
281
     1
  3
ACAD_XREC_ROUNDTRIP
360
15D
  0
DICTIONARY
  5
15E
330
3F
100
AcDbDictionary
280
     1
281
     1
  3
ACAD_XREC_ROUNDTRIP
360
15F
  0
DICTIONARY
  5
14E
330
37
100
AcDbDictionary
280
     1
281
     1
  3
ACAD_XREC_ROUNDTRIP
360
14F
  0
DICTIONARY
  5
140
330
30
100
AcDbDictionary
280
     1
281
     1
  3
ACAD_XREC_ROUNDTRIP
360
141
  0
DICTIONARY
  5
160
330
40
100
AcDbDictionary
280
     1
281
     1
  3
ACAD_XREC_ROUNDTRIP
360
161
  0
XRECORD
  5
169
102
{ACAD_REACTORS
330
168
102
}
330
168
100
AcDbXrecord
280
     1
102
MATERIAL
148
0.0
149
0.0
149
0.0
 93
        0
 94
      127
282
     0
 72
     1
 77
     1
171
     1
175
     1
179
     1
273
     0
  0
XRECORD
  5
167
102
{ACAD_REACTORS
330
166
102
}
330
166
100
AcDbXrecord
280
     1
102
MATERIAL
148
0.0
149
0.0
149
0.0
 93
        0
 94
      127
282
     0
 72
     1
 77
     1
171
     1
175
     1
179
     1
273
     0
  0
XRECORD
  5
16B
102
{ACAD_REACTORS
330
16A
102
}
330
16A
100
AcDbXrecord
280
     1
102
MATERIAL
148
0.0
149
0.0
149
0.0
 93
        0
 94
      127
282
     0
 72
     1
 77
     1
171
     1
175
     1
179
     1
273
     0
  0
XRECORD
  5
171
102
{ACAD_REACTORS
330
170
102
}
330
170
100
AcDbXrecord
280
     1
102
ACAD_ROUNDTRIP_2010_MLEADER_STYLE
  0
CELLSTYLEMAP
  5
16E
102
{ACAD_REACTORS
330
16C
102
}
330
16C
100
AcDbCellStyleMap
 90
        3
300
CELLSTYLE
  1
TABLEFORMAT_BEGIN
 90
        5
170
     1
 91
        0
 92
    32768
 62
   257
 93
        1
300
CONTENTFORMAT
  1
CONTENTFORMAT_BEGIN
 90
        0
 91
        0
 92
        4
 93
        0
300

 40
0.0
140
1.0
 94
        5
 62
     0
340
11
144
0.25
309
CONTENTFORMAT_END
171
     1
301
MARGIN
  1
CELLMARGIN_BEGIN
 40
0.06
 40
0.06
 40
0.06
 40
0.06
 40
0.06
 40
0.06
309
CELLMARGIN_END
 94
        6
 95
        1
302
GRIDFORMAT
  1
GRIDFORMAT_BEGIN
 90
        0
 91
        1
 62
     0
 92
       -2
340
14
 93
        0
 40
0.045
309
GRIDFORMAT_END
 95
        2
302
GRIDFORMAT
  1
GRIDFORMAT_BEGIN
 90
        0
 91
        1
 62
     0
 92
       -2
340
14
 93
        0
 40
0.045
309
GRIDFORMAT_END
 95
        4
302
GRIDFORMAT
  1
GRIDFORMAT_BEGIN
 90
        0
 91
        1
 62
     0
 92
       -2
340
14
 93
        0
 40
0.045
309
GRIDFORMAT_END
 95
        8
302
GRIDFORMAT
  1
GRIDFORMAT_BEGIN
 90
        0
 91
        1
 62
     0
 92
       -2
340
14
 93
        0
 40
0.045
309
GRIDFORMAT_END
 95
       16
302
GRIDFORMAT
  1
GRIDFORMAT_BEGIN
 90
        0
 91
        1
 62
     0
 92
       -2
340
14
 93
        0
 40
0.045
309
GRIDFORMAT_END
 95
       32
302
GRIDFORMAT
  1
GRIDFORMAT_BEGIN
 90
        0
 91
        1
 62
     0
 92
       -2
340
14
 93
        0
 40
0.045
309
GRIDFORMAT_END
309
TABLEFORMAT_END
  1
CELLSTYLE_BEGIN
 90
        1
 91
        1
300
_TITLE
309
CELLSTYLE_END
300
CELLSTYLE
  1
TABLEFORMAT_BEGIN
 90
        5
170
     1
 91
        0
 92
        0
 62
   257
 93
        1
300
CONTENTFORMAT
  1
CONTENTFORMAT_BEGIN
 90
        0
 91
        0
 92
        4
 93
        0
300

 40
0.0
140
1.0
 94
        5
 62
     0
340
11
144
0.18
309
CONTENTFORMAT_END
171
     1
301
MARGIN
  1
CELLMARGIN_BEGIN
 40
0.06
 40
0.06
 40
0.06
 40
0.06
 40
0.06
 40
0.06
309
CELLMARGIN_END
 94
        6
 95
        1
302
GRIDFORMAT
  1
GRIDFORMAT_BEGIN
 90
        0
 91
        1
 62
     0
 92
       -2
340
14
 93
        0
 40
0.045
309
GRIDFORMAT_END
 95
        2
302
GRIDFORMAT
  1
GRIDFORMAT_BEGIN
 90
        0
 91
        1
 62
     0
 92
       -2
340
14
 93
        0
 40
0.045
309
GRIDFORMAT_END
 95
        4
302
GRIDFORMAT
  1
GRIDFORMAT_BEGIN
 90
        0
 91
        1
 62
     0
 92
       -2
340
14
 93
        0
 40
0.045
309
GRIDFORMAT_END
 95
        8
302
GRIDFORMAT
  1
GRIDFORMAT_BEGIN
 90
        0
 91
        1
 62
     0
 92
       -2
340
14
 93
        0
 40
0.045
309
GRIDFORMAT_END
 95
       16
302
GRIDFORMAT
  1
GRIDFORMAT_BEGIN
 90
        0
 91
        1
 62
     0
 92
       -2
340
14
 93
        0
 40
0.045
309
GRIDFORMAT_END
 95
       32
302
GRIDFORMAT
  1
GRIDFORMAT_BEGIN
 90
        0
 91
        1
 62
     0
 92
       -2
340
14
 93
        0
 40
0.045
309
GRIDFORMAT_END
309
TABLEFORMAT_END
  1
CELLSTYLE_BEGIN
 90
        2
 91
        1
300
_HEADER
309
CELLSTYLE_END
300
CELLSTYLE
  1
TABLEFORMAT_BEGIN
 90
        5
170
     1
 91
        0
 92
        0
 62
   257
 93
        1
300
CONTENTFORMAT
  1
CONTENTFORMAT_BEGIN
 90
        0
 91
        0
 92
        4
 93
        0
300

 40
0.0
140
1.0
 94
        2
 62
     0
340
11
144
0.18
309
CONTENTFORMAT_END
171
     1
301
MARGIN
  1
CELLMARGIN_BEGIN
 40
0.06
 40
0.06
 40
0.06
 40
0.06
 40
0.06
 40
0.06
309
CELLMARGIN_END
 94
        6
 95
        1
302
GRIDFORMAT
  1
GRIDFORMAT_BEGIN
 90
        0
 91
        1
 62
     0
 92
       -2
340
14
 93
        0
 40
0.045
309
GRIDFORMAT_END
 95
        2
302
GRIDFORMAT
  1
GRIDFORMAT_BEGIN
 90
        0
 91
        1
 62
     0
 92
       -2
340
14
 93
        0
 40
0.045
309
GRIDFORMAT_END
 95
        4
302
GRIDFORMAT
  1
GRIDFORMAT_BEGIN
 90
        0
 91
        1
 62
     0
 92
       -2
340
14
 93
        0
 40
0.045
309
GRIDFORMAT_END
 95
        8
302
GRIDFORMAT
  1
GRIDFORMAT_BEGIN
 90
        0
 91
        1
 62
     0
 92
       -2
340
14
 93
        0
 40
0.045
309
GRIDFORMAT_END
 95
       16
302
GRIDFORMAT
  1
GRIDFORMAT_BEGIN
 90
        0
 91
        1
 62
     0
 92
       -2
340
14
 93
        0
 40
0.045
309
GRIDFORMAT_END
 95
       32
302
GRIDFORMAT
  1
GRIDFORMAT_BEGIN
 90
        0
 91
        1
 62
     0
 92
       -2
340
14
 93
        0
 40
0.045
309
GRIDFORMAT_END
309
TABLEFORMAT_END
  1
CELLSTYLE_BEGIN
 90
        3
 91
        2
300
_DATA
309
CELLSTYLE_END
  0
XRECORD
  5
16D
102
{ACAD_REACTORS
330
16C
102
}
330
16C
100
AcDbXrecord
280
     1
102
ACAD_ROUNDTRIP_PRE2007_TABLESTYLE
 90
        4
 91
        0
  1

 92
        4
 93
        0
  2

 94
        4
 95
        0
  3

  0
XRECORD
  5
13F
102
{ACAD_REACTORS
330
13E
102
}
330
13E
100
AcDbXrecord
280
     1
102
RTVSPropertyOp0
 70
     1
102
RTVSPropertyOp1
 70
     1
102
RTVSPropertyOp2
 70
     1
102
RTVSPropertyOp3
 70
     1
102
RTVSPropertyOp4
 70
     1
102
RTVSPropertyOp5
 70
     1
102
RTVSPropertyOp6
 70
     1
102
RTVSPropertyOp7
 70
     1
102
RTVSPropertyOp8
 70
     1
102
RTVSPropertyOp9
 70
     1
102
RTVSPropertyOp10
 70
     1
102
RTVSPropertyOp11
 70
     1
102
RTVSPropertyOp12
 70
     1
102
RTVSPropertyOp13
 70
     1
102
RTVSPropertyOp14
 70
     1
102
RTVSPropertyOp15
 70
     1
102
RTVSPropertyOp16
 70
     1
102
RTVSPropertyOp17
 70
     1
102
RTVSPropertyOp18
 70
     1
102
RTVSPropertyOp19
 70
     1
102
RTVSPropertyOp20
 70
     1
102
RTVSPropertyOp21
 70
     1
102
RTVSPropertyOp22
 70
     1
102
RTVSPropertyOp23
 70
     1
102
RTVSPropertyOp24
 70
     1
102
RTVSPropertyOp25
 70
     1
102
RTVSPropertyOp26
 70
     1
102
RTVSPropertyOp27
 70
     1
102
RTVSPropertyOp28
 70
     1
102
RTVSPropertyOp29
 70
     1
102
RTVSPropertyOp30
 70
     1
102
RTVSPropertyOp31
 70
     1
102
RTVSPropertyOp32
 70
     1
102
RTVSPropertyOp33
 70
     1
102
RTVSPropertyOp34
 70
     1
102
RTVSPropertyOp35
 70
     1
102
RTVSPropertyOp36
 70
     1
102
RTVSPropertyOp37
 70
     1
102
RTVSPropertyOp38
 70
     1
102
RTVSPropertyOp39
 70
     1
102
RTVSPropertyOp40
 70
     1
102
RTVSPropertyOp41
 70
     1
102
RTVSPropertyOp42
 70
     1
102
RTVSPropertyOp43
 70
     1
102
RTVSPropertyOp44
 70
     1
102
RTVSPropertyOp45
 70
     1
102
RTVSPropertyOp46
 70
     1
102
RTVSPropertyOp47
 70
     1
102
RTVSPropertyOp48
 70
     1
102
RTVSPropertyOp49
 70
     1
102
RTVSPropertyOp50
 70
     1
102
RTVSPropertyOp51
 70
     0
102
RTVSPropertyOp52
 70
     0
102
RTVSPropertyOp53
 70
     1
102
RTVSPropertyOp54
 70
     1
102
RTVSPropertyOp55
 70
     1
102
RTVSPropertyOp56
 70
     1
102
RTVSPropertyOp57
 70
     1
102
RTVSPost2010Prop28
280
     1
102
RTVSPost2010PropOp28
 70
     1
102
RTVSPost2010Prop29
280
     1
102
RTVSPost2010PropOp29
 70
     1
102
RTVSPost2010Prop30
280
     0
102
RTVSPost2010PropOp30
 70
     1
102
RTVSPost2010Prop31
280
     0
102
RTVSPost2010PropOp31
 70
     1
102
RTVSPost2010Prop32
280
     0
102
RTVSPost2010PropOp32
 70
     1
102
RTVSPost2010Prop33
280
     0
102
RTVSPost2010PropOp33
 70
     1
102
RTVSPost2010Prop34
280
     0
102
RTVSPost2010PropOp34
 70
     1
102
RTVSPost2010Prop35
280
     0
102
RTVSPost2010PropOp35
 70
     1
102
RTVSPost2010Prop36
280
     0
102
RTVSPost2010PropOp36
 70
     1
102
RTVSPost2010Prop37
 90
       50
102
RTVSPost2010PropOp37
 70
     1
102
RTVSPost2010Prop38
140
0.0
102
RTVSPost2010PropOp38
 70
     1
102
RTVSPost2010Prop39
140
1.0
102
RTVSPost2010PropOp39
 70
     1
102
RTVSPost2010Prop40
 90
        0
102
RTVSPost2010PropOp40
 70
     1
102
RTVSPost2010Prop41ColorIndex
 90
       18
102
RTVSPost2010Prop41ColorRGB
 90
        0
102
RTVSPost2010PropOp41
 70
     1
102
RTVSPost2010Prop42
 90
       50
102
RTVSPost2010PropOp42
 70
     1
102
RTVSPost2010Prop43
 90
        3
102
RTVSPost2010PropOp43
 70
     1
102
RTVSPost2010Prop44ColorIndex
 90
        5
102
RTVSPost2010Prop44ColorRGB
 90
      255
102
RTVSPost2010PropOp44
 70
     1
102
RTVSPost2010Prop45
280
     0
102
RTVSPost2010PropOp45
 70
     1
102
RTVSPost2010Prop46
 90
       50
102
RTVSPost2010PropOp46
 70
     1
102
RTVSPost2010Prop47
 90
       50
102
RTVSPost2010PropOp47
 70
     1
102
RTVSPost2010Prop48
 90
       50
102
RTVSPost2010PropOp48
 70
     1
102
RTVSPost2010Prop49
280
     0
102
RTVSPost2010PropOp49
 70
     1
102
RTVSPost2010Prop50
 90
       50
102
RTVSPost2010PropOp50
 70
     1
102
RTVSPost2010Prop51ColorIndex
 90
      256
102
RTVSPost2010Prop51ColorRGB
 90
-16777216
102
RTVSPost2010PropOp51
 70
     0
102
RTVSPost2010Prop52
140
1.0
102
RTVSPost2010PropOp52
 70
     0
102
RTVSPost2010Prop53
 90
        2
102
RTVSPost2010PropOp53
 70
     1
102
RTVSPost2010Prop54
  1
strokes_ogs.tif
102
RTVSPost2010PropOp54
 70
     1
102
RTVSPost2010Prop55
280
     0
102
RTVSPost2010PropOp55
 70
     1
102
RTVSPost2010Prop56
140
1.0
102
RTVSPost2010PropOp56
 70
     1
102
RTVSPost2010Prop57
140
1.0
102
RTVSPost2010PropOp57
 70
     1
  0
XRECORD
  5
145
102
{ACAD_REACTORS
330
144
102
}
330
144
100
AcDbXrecord
280
     1
102
RTVSPropertyOp0
 70
     1
102
RTVSPropertyOp1
 70
     1
102
RTVSPropertyOp2
 70
     1
102
RTVSPropertyOp3
 70
     1
102
RTVSPropertyOp4
 70
     1
102
RTVSPropertyOp5
 70
     1
102
RTVSPropertyOp6
 70
     1
102
RTVSPropertyOp7
 70
     1
102
RTVSPropertyOp8
 70
     1
102
RTVSPropertyOp9
 70
     1
102
RTVSPropertyOp10
 70
     1
102
RTVSPropertyOp11
 70
     1
102
RTVSPropertyOp12
 70
     1
102
RTVSPropertyOp13
 70
     1
102
RTVSPropertyOp14
 70
     1
102
RTVSPropertyOp15
 70
     1
102
RTVSPropertyOp16
 70
     1
102
RTVSPropertyOp17
 70
     1
102
RTVSPropertyOp18
 70
     1
102
RTVSPropertyOp19
 70
     1
102
RTVSPropertyOp20
 70
     1
102
RTVSPropertyOp21
 70
     1
102
RTVSPropertyOp22
 70
     1
102
RTVSPropertyOp23
 70
     1
102
RTVSPropertyOp24
 70
     1
102
RTVSPropertyOp25
 70
     1
102
RTVSPropertyOp26
 70
     1
102
RTVSPropertyOp27
 70
     1
102
RTVSPropertyOp28
 70
     1
102
RTVSPropertyOp29
 70
     1
102
RTVSPropertyOp30
 70
     1
102
RTVSPropertyOp31
 70
     1
102
RTVSPropertyOp32
 70
     1
102
RTVSPropertyOp33
 70
     1
102
RTVSPropertyOp34
 70
     1
102
RTVSPropertyOp35
 70
     1
102
RTVSPropertyOp36
 70
     1
102
RTVSPropertyOp37
 70
     1
102
RTVSPropertyOp38
 70
     1
102
RTVSPropertyOp39
 70
     1
102
RTVSPropertyOp40
 70
     1
102
RTVSPropertyOp41
 70
     1
102
RTVSPropertyOp42
 70
     1
102
RTVSPropertyOp43
 70
     1
102
RTVSPropertyOp44
 70
     1
102
RTVSPropertyOp45
 70
     1
102
RTVSPropertyOp46
 70
     1
102
RTVSPropertyOp47
 70
     1
102
RTVSPropertyOp48
 70
     1
102
RTVSPropertyOp49
 70
     1
102
RTVSPropertyOp50
 70
     1
102
RTVSPropertyOp51
 70
     0
102
RTVSPropertyOp52
 70
     0
102
RTVSPropertyOp53
 70
     1
102
RTVSPropertyOp54
 70
     1
102
RTVSPropertyOp55
 70
     1
102
RTVSPropertyOp56
 70
     1
102
RTVSPropertyOp57
 70
     1
102
RTVSPost2010Prop28
280
     0
102
RTVSPost2010PropOp28
 70
     1
102
RTVSPost2010Prop29
280
     1
102
RTVSPost2010PropOp29
 70
     1
102
RTVSPost2010Prop30
280
     1
102
RTVSPost2010PropOp30
 70
     1
102
RTVSPost2010Prop31
280
     0
102
RTVSPost2010PropOp31
 70
     1
102
RTVSPost2010Prop32
280
     0
102
RTVSPost2010PropOp32
 70
     1
102
RTVSPost2010Prop33
280
     0
102
RTVSPost2010PropOp33
 70
     1
102
RTVSPost2010Prop34
280
     0
102
RTVSPost2010PropOp34
 70
     1
102
RTVSPost2010Prop35
280
     0
102
RTVSPost2010PropOp35
 70
     1
102
RTVSPost2010Prop36
280
     0
102
RTVSPost2010PropOp36
 70
     1
102
RTVSPost2010Prop37
 90
       50
102
RTVSPost2010PropOp37
 70
     1
102
RTVSPost2010Prop38
140
0.0
102
RTVSPost2010PropOp38
 70
     1
102
RTVSPost2010Prop39
140
1.0
102
RTVSPost2010PropOp39
 70
     1
102
RTVSPost2010Prop40
 90
        0
102
RTVSPost2010PropOp40
 70
     1
102
RTVSPost2010Prop41ColorIndex
 90
       18
102
RTVSPost2010Prop41ColorRGB
 90
        0
102
RTVSPost2010PropOp41
 70
     1
102
RTVSPost2010Prop42
 90
       50
102
RTVSPost2010PropOp42
 70
     1
102
RTVSPost2010Prop43
 90
        3
102
RTVSPost2010PropOp43
 70
     1
102
RTVSPost2010Prop44ColorIndex
 90
        5
102
RTVSPost2010Prop44ColorRGB
 90
      255
102
RTVSPost2010PropOp44
 70
     1
102
RTVSPost2010Prop45
280
     0
102
RTVSPost2010PropOp45
 70
     1
102
RTVSPost2010Prop46
 90
       50
102
RTVSPost2010PropOp46
 70
     1
102
RTVSPost2010Prop47
 90
       50
102
RTVSPost2010PropOp47
 70
     1
102
RTVSPost2010Prop48
 90
       50
102
RTVSPost2010PropOp48
 70
     1
102
RTVSPost2010Prop49
280
     0
102
RTVSPost2010PropOp49
 70
     1
102
RTVSPost2010Prop50
 90
       50
102
RTVSPost2010PropOp50
 70
     1
102
RTVSPost2010Prop51ColorIndex
 90
      256
102
RTVSPost2010Prop51ColorRGB
 90
-16777216
102
RTVSPost2010PropOp51
 70
     0
102
RTVSPost2010Prop52
140
1.0
102
RTVSPost2010PropOp52
 70
     0
102
RTVSPost2010Prop53
 90
        2
102
RTVSPost2010PropOp53
 70
     1
102
RTVSPost2010Prop54
  1
strokes_ogs.tif
102
RTVSPost2010PropOp54
 70
     1
102
RTVSPost2010Prop55
280
     0
102
RTVSPost2010PropOp55
 70
     1
102
RTVSPost2010Prop56
140
1.0
102
RTVSPost2010PropOp56
 70
     1
102
RTVSPost2010Prop57
140
1.0
102
RTVSPost2010PropOp57
 70
     1
  0
XRECORD
  5
14D
102
{ACAD_REACTORS
330
14C
102
}
330
14C
100
AcDbXrecord
280
     1
102
RTVSPropertyOp0
 70
     1
102
RTVSPropertyOp1
 70
     1
102
RTVSPropertyOp2
 70
     1
102
RTVSPropertyOp3
 70
     1
102
RTVSPropertyOp4
 70
     1
102
RTVSPropertyOp5
 70
     1
102
RTVSPropertyOp6
 70
     1
102
RTVSPropertyOp7
 70
     1
102
RTVSPropertyOp8
 70
     1
102
RTVSPropertyOp9
 70
     1
102
RTVSPropertyOp10
 70
     1
102
RTVSPropertyOp11
 70
     1
102
RTVSPropertyOp12
 70
     1
102
RTVSPropertyOp13
 70
     1
102
RTVSPropertyOp14
 70
     1
102
RTVSPropertyOp15
 70
     1
102
RTVSPropertyOp16
 70
     1
102
RTVSPropertyOp17
 70
     1
102
RTVSPropertyOp18
 70
     1
102
RTVSPropertyOp19
 70
     1
102
RTVSPropertyOp20
 70
     1
102
RTVSPropertyOp21
 70
     1
102
RTVSPropertyOp22
 70
     1
102
RTVSPropertyOp23
 70
     1
102
RTVSPropertyOp24
 70
     1
102
RTVSPropertyOp25
 70
     1
102
RTVSPropertyOp26
 70
     1
102
RTVSPropertyOp27
 70
     1
102
RTVSPropertyOp28
 70
     1
102
RTVSPropertyOp29
 70
     1
102
RTVSPropertyOp30
 70
     1
102
RTVSPropertyOp31
 70
     1
102
RTVSPropertyOp32
 70
     1
102
RTVSPropertyOp33
 70
     1
102
RTVSPropertyOp34
 70
     1
102
RTVSPropertyOp35
 70
     1
102
RTVSPropertyOp36
 70
     1
102
RTVSPropertyOp37
 70
     1
102
RTVSPropertyOp38
 70
     1
102
RTVSPropertyOp39
 70
     1
102
RTVSPropertyOp40
 70
     1
102
RTVSPropertyOp41
 70
     1
102
RTVSPropertyOp42
 70
     1
102
RTVSPropertyOp43
 70
     1
102
RTVSPropertyOp44
 70
     1
102
RTVSPropertyOp45
 70
     1
102
RTVSPropertyOp46
 70
     1
102
RTVSPropertyOp47
 70
     1
102
RTVSPropertyOp48
 70
     1
102
RTVSPropertyOp49
 70
     1
102
RTVSPropertyOp50
 70
     1
102
RTVSPropertyOp51
 70
     0
102
RTVSPropertyOp52
 70
     0
102
RTVSPropertyOp53
 70
     1
102
RTVSPropertyOp54
 70
     1
102
RTVSPropertyOp55
 70
     1
102
RTVSPropertyOp56
 70
     1
102
RTVSPropertyOp57
 70
     1
102
RTVSPost2010Prop28
280
     0
102
RTVSPost2010PropOp28
 70
     1
102
RTVSPost2010Prop29
280
     1
102
RTVSPost2010PropOp29
 70
     1
102
RTVSPost2010Prop30
280
     1
102
RTVSPost2010PropOp30
 70
     1
102
RTVSPost2010Prop31
280
     0
102
RTVSPost2010PropOp31
 70
     1
102
RTVSPost2010Prop32
280
     0
102
RTVSPost2010PropOp32
 70
     1
102
RTVSPost2010Prop33
280
     0
102
RTVSPost2010PropOp33
 70
     1
102
RTVSPost2010Prop34
280
     0
102
RTVSPost2010PropOp34
 70
     1
102
RTVSPost2010Prop35
280
     0
102
RTVSPost2010PropOp35
 70
     1
102
RTVSPost2010Prop36
280
     0
102
RTVSPost2010PropOp36
 70
     1
102
RTVSPost2010Prop37
 90
       50
102
RTVSPost2010PropOp37
 70
     1
102
RTVSPost2010Prop38
140
0.0
102
RTVSPost2010PropOp38
 70
     1
102
RTVSPost2010Prop39
140
1.0
102
RTVSPost2010PropOp39
 70
     1
102
RTVSPost2010Prop40
 90
        0
102
RTVSPost2010PropOp40
 70
     1
102
RTVSPost2010Prop41ColorIndex
 90
       18
102
RTVSPost2010Prop41ColorRGB
 90
        0
102
RTVSPost2010PropOp41
 70
     1
102
RTVSPost2010Prop42
 90
       50
102
RTVSPost2010PropOp42
 70
     1
102
RTVSPost2010Prop43
 90
        3
102
RTVSPost2010PropOp43
 70
     1
102
RTVSPost2010Prop44ColorIndex
 90
        5
102
RTVSPost2010Prop44ColorRGB
 90
      255
102
RTVSPost2010PropOp44
 70
     1
102
RTVSPost2010Prop45
280
     0
102
RTVSPost2010PropOp45
 70
     1
102
RTVSPost2010Prop46
 90
       50
102
RTVSPost2010PropOp46
 70
     1
102
RTVSPost2010Prop47
 90
       50
102
RTVSPost2010PropOp47
 70
     1
102
RTVSPost2010Prop48
 90
       50
102
RTVSPost2010PropOp48
 70
     1
102
RTVSPost2010Prop49
280
     0
102
RTVSPost2010PropOp49
 70
     1
102
RTVSPost2010Prop50
 90
       50
102
RTVSPost2010PropOp50
 70
     1
102
RTVSPost2010Prop51ColorIndex
 90
      256
102
RTVSPost2010Prop51ColorRGB
 90
-16777216
102
RTVSPost2010PropOp51
 70
     0
102
RTVSPost2010Prop52
140
1.0
102
RTVSPost2010PropOp52
 70
     0
102
RTVSPost2010Prop53
 90
        2
102
RTVSPost2010PropOp53
 70
     1
102
RTVSPost2010Prop54
  1
strokes_ogs.tif
102
RTVSPost2010PropOp54
 70
     1
102
RTVSPost2010Prop55
280
     0
102
RTVSPost2010PropOp55
 70
     1
102
RTVSPost2010Prop56
140
1.0
102
RTVSPost2010PropOp56
 70
     1
102
RTVSPost2010Prop57
140
1.0
102
RTVSPost2010PropOp57
 70
     1
  0
XRECORD
  5
155
102
{ACAD_REACTORS
330
154
102
}
330
154
100
AcDbXrecord
280
     1
102
RTVSPropertyOp0
 70
     1
102
RTVSPropertyOp1
 70
     1
102
RTVSPropertyOp2
 70
     1
102
RTVSPropertyOp3
 70
     1
102
RTVSPropertyOp4
 70
     1
102
RTVSPropertyOp5
 70
     1
102
RTVSPropertyOp6
 70
     1
102
RTVSPropertyOp7
 70
     1
102
RTVSPropertyOp8
 70
     1
102
RTVSPropertyOp9
 70
     1
102
RTVSPropertyOp10
 70
     1
102
RTVSPropertyOp11
 70
     1
102
RTVSPropertyOp12
 70
     1
102
RTVSPropertyOp13
 70
     1
102
RTVSPropertyOp14
 70
     1
102
RTVSPropertyOp15
 70
     1
102
RTVSPropertyOp16
 70
     1
102
RTVSPropertyOp17
 70
     1
102
RTVSPropertyOp18
 70
     1
102
RTVSPropertyOp19
 70
     1
102
RTVSPropertyOp20
 70
     1
102
RTVSPropertyOp21
 70
     1
102
RTVSPropertyOp22
 70
     1
102
RTVSPropertyOp23
 70
     1
102
RTVSPropertyOp24
 70
     1
102
RTVSPropertyOp25
 70
     1
102
RTVSPropertyOp26
 70
     1
102
RTVSPropertyOp27
 70
     1
102
RTVSPropertyOp28
 70
     1
102
RTVSPropertyOp29
 70
     1
102
RTVSPropertyOp30
 70
     1
102
RTVSPropertyOp31
 70
     1
102
RTVSPropertyOp32
 70
     1
102
RTVSPropertyOp33
 70
     1
102
RTVSPropertyOp34
 70
     1
102
RTVSPropertyOp35
 70
     1
102
RTVSPropertyOp36
 70
     1
102
RTVSPropertyOp37
 70
     1
102
RTVSPropertyOp38
 70
     1
102
RTVSPropertyOp39
 70
     1
102
RTVSPropertyOp40
 70
     1
102
RTVSPropertyOp41
 70
     1
102
RTVSPropertyOp42
 70
     1
102
RTVSPropertyOp43
 70
     1
102
RTVSPropertyOp44
 70
     1
102
RTVSPropertyOp45
 70
     1
102
RTVSPropertyOp46
 70
     1
102
RTVSPropertyOp47
 70
     1
102
RTVSPropertyOp48
 70
     1
102
RTVSPropertyOp49
 70
     1
102
RTVSPropertyOp50
 70
     1
102
RTVSPropertyOp51
 70
     0
102
RTVSPropertyOp52
 70
     0
102
RTVSPropertyOp53
 70
     1
102
RTVSPropertyOp54
 70
     1
102
RTVSPropertyOp55
 70
     1
102
RTVSPropertyOp56
 70
     1
102
RTVSPropertyOp57
 70
     1
102
RTVSPost2010Prop28
280
     0
102
RTVSPost2010PropOp28
 70
     1
102
RTVSPost2010Prop29
280
     1
102
RTVSPost2010PropOp29
 70
     1
102
RTVSPost2010Prop30
280
     1
102
RTVSPost2010PropOp30
 70
     1
102
RTVSPost2010Prop31
280
     0
102
RTVSPost2010PropOp31
 70
     1
102
RTVSPost2010Prop32
280
     0
102
RTVSPost2010PropOp32
 70
     1
102
RTVSPost2010Prop33
280
     0
102
RTVSPost2010PropOp33
 70
     1
102
RTVSPost2010Prop34
280
     0
102
RTVSPost2010PropOp34
 70
     1
102
RTVSPost2010Prop35
280
     0
102
RTVSPost2010PropOp35
 70
     1
102
RTVSPost2010Prop36
280
     0
102
RTVSPost2010PropOp36
 70
     1
102
RTVSPost2010Prop37
 90
       50
102
RTVSPost2010PropOp37
 70
     1
102
RTVSPost2010Prop38
140
0.0
102
RTVSPost2010PropOp38
 70
     1
102
RTVSPost2010Prop39
140
1.0
102
RTVSPost2010PropOp39
 70
     1
102
RTVSPost2010Prop40
 90
        0
102
RTVSPost2010PropOp40
 70
     1
102
RTVSPost2010Prop41ColorIndex
 90
       18
102
RTVSPost2010Prop41ColorRGB
 90
        0
102
RTVSPost2010PropOp41
 70
     1
102
RTVSPost2010Prop42
 90
       50
102
RTVSPost2010PropOp42
 70
     1
102
RTVSPost2010Prop43
 90
        3
102
RTVSPost2010PropOp43
 70
     1
102
RTVSPost2010Prop44ColorIndex
 90
        5
102
RTVSPost2010Prop44ColorRGB
 90
      255
102
RTVSPost2010PropOp44
 70
     1
102
RTVSPost2010Prop45
280
     0
102
RTVSPost2010PropOp45
 70
     1
102
RTVSPost2010Prop46
 90
       50
102
RTVSPost2010PropOp46
 70
     1
102
RTVSPost2010Prop47
 90
       50
102
RTVSPost2010PropOp47
 70
     1
102
RTVSPost2010Prop48
 90
       50
102
RTVSPost2010PropOp48
 70
     1
102
RTVSPost2010Prop49
280
     0
102
RTVSPost2010PropOp49
 70
     1
102
RTVSPost2010Prop50
 90
       50
102
RTVSPost2010PropOp50
 70
     1
102
RTVSPost2010Prop51ColorIndex
 90
      256
102
RTVSPost2010Prop51ColorRGB
 90
-16777216
102
RTVSPost2010PropOp51
 70
     0
102
RTVSPost2010Prop52
140
1.0
102
RTVSPost2010PropOp52
 70
     0
102
RTVSPost2010Prop53
 90
        2
102
RTVSPost2010PropOp53
 70
     1
102
RTVSPost2010Prop54
  1
strokes_ogs.tif
102
RTVSPost2010PropOp54
 70
     1
102
RTVSPost2010Prop55
280
     0
102
RTVSPost2010PropOp55
 70
     1
102
RTVSPost2010Prop56
140
1.0
102
RTVSPost2010PropOp56
 70
     1
102
RTVSPost2010Prop57
140
1.0
102
RTVSPost2010PropOp57
 70
     1
  0
XRECORD
  5
149
102
{ACAD_REACTORS
330
148
102
}
330
148
100
AcDbXrecord
280
     1
102
RTVSPropertyOp0
 70
     1
102
RTVSPropertyOp1
 70
     1
102
RTVSPropertyOp2
 70
     1
102
RTVSPropertyOp3
 70
     1
102
RTVSPropertyOp4
 70
     1
102
RTVSPropertyOp5
 70
     1
102
RTVSPropertyOp6
 70
     1
102
RTVSPropertyOp7
 70
     1
102
RTVSPropertyOp8
 70
     1
102
RTVSPropertyOp9
 70
     1
102
RTVSPropertyOp10
 70
     1
102
RTVSPropertyOp11
 70
     1
102
RTVSPropertyOp12
 70
     1
102
RTVSPropertyOp13
 70
     1
102
RTVSPropertyOp14
 70
     1
102
RTVSPropertyOp15
 70
     1
102
RTVSPropertyOp16
 70
     1
102
RTVSPropertyOp17
 70
     1
102
RTVSPropertyOp18
 70
     1
102
RTVSPropertyOp19
 70
     1
102
RTVSPropertyOp20
 70
     1
102
RTVSPropertyOp21
 70
     1
102
RTVSPropertyOp22
 70
     1
102
RTVSPropertyOp23
 70
     1
102
RTVSPropertyOp24
 70
     1
102
RTVSPropertyOp25
 70
     1
102
RTVSPropertyOp26
 70
     1
102
RTVSPropertyOp27
 70
     1
102
RTVSPropertyOp28
 70
     1
102
RTVSPropertyOp29
 70
     1
102
RTVSPropertyOp30
 70
     1
102
RTVSPropertyOp31
 70
     1
102
RTVSPropertyOp32
 70
     1
102
RTVSPropertyOp33
 70
     1
102
RTVSPropertyOp34
 70
     1
102
RTVSPropertyOp35
 70
     1
102
RTVSPropertyOp36
 70
     1
102
RTVSPropertyOp37
 70
     1
102
RTVSPropertyOp38
 70
     1
102
RTVSPropertyOp39
 70
     1
102
RTVSPropertyOp40
 70
     1
102
RTVSPropertyOp41
 70
     1
102
RTVSPropertyOp42
 70
     1
102
RTVSPropertyOp43
 70
     1
102
RTVSPropertyOp44
 70
     1
102
RTVSPropertyOp45
 70
     1
102
RTVSPropertyOp46
 70
     1
102
RTVSPropertyOp47
 70
     1
102
RTVSPropertyOp48
 70
     1
102
RTVSPropertyOp49
 70
     1
102
RTVSPropertyOp50
 70
     1
102
RTVSPropertyOp51
 70
     0
102
RTVSPropertyOp52
 70
     0
102
RTVSPropertyOp53
 70
     1
102
RTVSPropertyOp54
 70
     1
102
RTVSPropertyOp55
 70
     1
102
RTVSPropertyOp56
 70
     1
102
RTVSPropertyOp57
 70
     1
102
RTVSPost2010Prop28
280
     0
102
RTVSPost2010PropOp28
 70
     1
102
RTVSPost2010Prop29
280
     1
102
RTVSPost2010PropOp29
 70
     1
102
RTVSPost2010Prop30
280
     1
102
RTVSPost2010PropOp30
 70
     1
102
RTVSPost2010Prop31
280
     0
102
RTVSPost2010PropOp31
 70
     1
102
RTVSPost2010Prop32
280
     0
102
RTVSPost2010PropOp32
 70
     1
102
RTVSPost2010Prop33
280
     0
102
RTVSPost2010PropOp33
 70
     1
102
RTVSPost2010Prop34
280
     0
102
RTVSPost2010PropOp34
 70
     1
102
RTVSPost2010Prop35
280
     0
102
RTVSPost2010PropOp35
 70
     1
102
RTVSPost2010Prop36
280
     0
102
RTVSPost2010PropOp36
 70
     1
102
RTVSPost2010Prop37
 90
       50
102
RTVSPost2010PropOp37
 70
     1
102
RTVSPost2010Prop38
140
0.0
102
RTVSPost2010PropOp38
 70
     1
102
RTVSPost2010Prop39
140
1.0
102
RTVSPost2010PropOp39
 70
     1
102
RTVSPost2010Prop40
 90
        0
102
RTVSPost2010PropOp40
 70
     1
102
RTVSPost2010Prop41ColorIndex
 90
       18
102
RTVSPost2010Prop41ColorRGB
 90
        0
102
RTVSPost2010PropOp41
 70
     1
102
RTVSPost2010Prop42
 90
       50
102
RTVSPost2010PropOp42
 70
     1
102
RTVSPost2010Prop43
 90
        3
102
RTVSPost2010PropOp43
 70
     1
102
RTVSPost2010Prop44ColorIndex
 90
        5
102
RTVSPost2010Prop44ColorRGB
 90
      255
102
RTVSPost2010PropOp44
 70
     1
102
RTVSPost2010Prop45
280
     0
102
RTVSPost2010PropOp45
 70
     1
102
RTVSPost2010Prop46
 90
       50
102
RTVSPost2010PropOp46
 70
     1
102
RTVSPost2010Prop47
 90
       50
102
RTVSPost2010PropOp47
 70
     1
102
RTVSPost2010Prop48
 90
       50
102
RTVSPost2010PropOp48
 70
     1
102
RTVSPost2010Prop49
280
     0
102
RTVSPost2010PropOp49
 70
     1
102
RTVSPost2010Prop50
 90
       50
102
RTVSPost2010PropOp50
 70
     1
102
RTVSPost2010Prop51ColorIndex
 90
      256
102
RTVSPost2010Prop51ColorRGB
 90
-16777216
102
RTVSPost2010PropOp51
 70
     0
102
RTVSPost2010Prop52
140
1.0
102
RTVSPost2010PropOp52
 70
     0
102
RTVSPost2010Prop53
 90
        2
102
RTVSPost2010PropOp53
 70
     1
102
RTVSPost2010Prop54
  1
strokes_ogs.tif
102
RTVSPost2010PropOp54
 70
     1
102
RTVSPost2010Prop55
280
     0
102
RTVSPost2010PropOp55
 70
     1
102
RTVSPost2010Prop56
140
1.0
102
RTVSPost2010PropOp56
 70
     1
102
RTVSPost2010Prop57
140
1.0
102
RTVSPost2010PropOp57
 70
     1
  0
XRECORD
  5
14B
102
{ACAD_REACTORS
330
14A
102
}
330
14A
100
AcDbXrecord
280
     1
102
RTVSPropertyOp0
 70
     1
102
RTVSPropertyOp1
 70
     1
102
RTVSPropertyOp2
 70
     1
102
RTVSPropertyOp3
 70
     1
102
RTVSPropertyOp4
 70
     1
102
RTVSPropertyOp5
 70
     1
102
RTVSPropertyOp6
 70
     1
102
RTVSPropertyOp7
 70
     1
102
RTVSPropertyOp8
 70
     1
102
RTVSPropertyOp9
 70
     1
102
RTVSPropertyOp10
 70
     1
102
RTVSPropertyOp11
 70
     1
102
RTVSPropertyOp12
 70
     1
102
RTVSPropertyOp13
 70
     1
102
RTVSPropertyOp14
 70
     1
102
RTVSPropertyOp15
 70
     1
102
RTVSPropertyOp16
 70
     1
102
RTVSPropertyOp17
 70
     1
102
RTVSPropertyOp18
 70
     1
102
RTVSPropertyOp19
 70
     1
102
RTVSPropertyOp20
 70
     1
102
RTVSPropertyOp21
 70
     1
102
RTVSPropertyOp22
 70
     1
102
RTVSPropertyOp23
 70
     1
102
RTVSPropertyOp24
 70
     1
102
RTVSPropertyOp25
 70
     1
102
RTVSPropertyOp26
 70
     1
102
RTVSPropertyOp27
 70
     1
102
RTVSPropertyOp28
 70
     1
102
RTVSPropertyOp29
 70
     1
102
RTVSPropertyOp30
 70
     1
102
RTVSPropertyOp31
 70
     1
102
RTVSPropertyOp32
 70
     1
102
RTVSPropertyOp33
 70
     1
102
RTVSPropertyOp34
 70
     1
102
RTVSPropertyOp35
 70
     1
102
RTVSPropertyOp36
 70
     1
102
RTVSPropertyOp37
 70
     1
102
RTVSPropertyOp38
 70
     1
102
RTVSPropertyOp39
 70
     1
102
RTVSPropertyOp40
 70
     1
102
RTVSPropertyOp41
 70
     1
102
RTVSPropertyOp42
 70
     1
102
RTVSPropertyOp43
 70
     1
102
RTVSPropertyOp44
 70
     1
102
RTVSPropertyOp45
 70
     1
102
RTVSPropertyOp46
 70
     1
102
RTVSPropertyOp47
 70
     1
102
RTVSPropertyOp48
 70
     1
102
RTVSPropertyOp49
 70
     1
102
RTVSPropertyOp50
 70
     1
102
RTVSPropertyOp51
 70
     0
102
RTVSPropertyOp52
 70
     0
102
RTVSPropertyOp53
 70
     1
102
RTVSPropertyOp54
 70
     1
102
RTVSPropertyOp55
 70
     1
102
RTVSPropertyOp56
 70
     1
102
RTVSPropertyOp57
 70
     1
102
RTVSPost2010Prop28
280
     0
102
RTVSPost2010PropOp28
 70
     1
102
RTVSPost2010Prop29
280
     1
102
RTVSPost2010PropOp29
 70
     1
102
RTVSPost2010Prop30
280
     1
102
RTVSPost2010PropOp30
 70
     1
102
RTVSPost2010Prop31
280
     0
102
RTVSPost2010PropOp31
 70
     1
102
RTVSPost2010Prop32
280
     0
102
RTVSPost2010PropOp32
 70
     1
102
RTVSPost2010Prop33
280
     0
102
RTVSPost2010PropOp33
 70
     1
102
RTVSPost2010Prop34
280
     0
102
RTVSPost2010PropOp34
 70
     1
102
RTVSPost2010Prop35
280
     0
102
RTVSPost2010PropOp35
 70
     1
102
RTVSPost2010Prop36
280
     0
102
RTVSPost2010PropOp36
 70
     1
102
RTVSPost2010Prop37
 90
       50
102
RTVSPost2010PropOp37
 70
     1
102
RTVSPost2010Prop38
140
0.0
102
RTVSPost2010PropOp38
 70
     1
102
RTVSPost2010Prop39
140
1.0
102
RTVSPost2010PropOp39
 70
     1
102
RTVSPost2010Prop40
 90
        0
102
RTVSPost2010PropOp40
 70
     1
102
RTVSPost2010Prop41ColorIndex
 90
       18
102
RTVSPost2010Prop41ColorRGB
 90
        0
102
RTVSPost2010PropOp41
 70
     1
102
RTVSPost2010Prop42
 90
       50
102
RTVSPost2010PropOp42
 70
     1
102
RTVSPost2010Prop43
 90
        3
102
RTVSPost2010PropOp43
 70
     1
102
RTVSPost2010Prop44ColorIndex
 90
        5
102
RTVSPost2010Prop44ColorRGB
 90
      255
102
RTVSPost2010PropOp44
 70
     1
102
RTVSPost2010Prop45
280
     0
102
RTVSPost2010PropOp45
 70
     1
102
RTVSPost2010Prop46
 90
       50
102
RTVSPost2010PropOp46
 70
     1
102
RTVSPost2010Prop47
 90
       50
102
RTVSPost2010PropOp47
 70
     1
102
RTVSPost2010Prop48
 90
       50
102
RTVSPost2010PropOp48
 70
     1
102
RTVSPost2010Prop49
280
     0
102
RTVSPost2010PropOp49
 70
     1
102
RTVSPost2010Prop50
 90
       50
102
RTVSPost2010PropOp50
 70
     1
102
RTVSPost2010Prop51ColorIndex
 90
      256
102
RTVSPost2010Prop51ColorRGB
 90
-16777216
102
RTVSPost2010PropOp51
 70
     0
102
RTVSPost2010Prop52
140
1.0
102
RTVSPost2010PropOp52
 70
     0
102
RTVSPost2010Prop53
 90
        2
102
RTVSPost2010PropOp53
 70
     1
102
RTVSPost2010Prop54
  1
strokes_ogs.tif
102
RTVSPost2010PropOp54
 70
     1
102
RTVSPost2010Prop55
280
     0
102
RTVSPost2010PropOp55
 70
     1
102
RTVSPost2010Prop56
140
1.0
102
RTVSPost2010PropOp56
 70
     1
102
RTVSPost2010Prop57
140
1.0
102
RTVSPost2010PropOp57
 70
     1
  0
XRECORD
  5
15B
102
{ACAD_REACTORS
330
15A
102
}
330
15A
100
AcDbXrecord
280
     1
102
RTVSPropertyOp0
 70
     0
102
RTVSPropertyOp1
 70
     0
102
RTVSPropertyOp2
 70
     0
102
RTVSPropertyOp3
 70
     0
102
RTVSPropertyOp4
 70
     0
102
RTVSPropertyOp5
 70
     0
102
RTVSPropertyOp6
 70
     0
102
RTVSPropertyOp7
 70
     0
102
RTVSPropertyOp8
 70
     0
102
RTVSPropertyOp9
 70
     0
102
RTVSPropertyOp10
 70
     0
102
RTVSPropertyOp11
 70
     0
102
RTVSPropertyOp12
 70
     0
102
RTVSPropertyOp13
 70
     0
102
RTVSPropertyOp14
 70
     2
102
RTVSPropertyOp15
 70
     0
102
RTVSPropertyOp16
 70
     0
102
RTVSPropertyOp17
 70
     0
102
RTVSPropertyOp18
 70
     0
102
RTVSPropertyOp19
 70
     0
102
RTVSPropertyOp20
 70
     0
102
RTVSPropertyOp21
 70
     0
102
RTVSPropertyOp22
 70
     0
102
RTVSPropertyOp23
 70
     0
102
RTVSPropertyOp24
 70
     0
102
RTVSPropertyOp25
 70
     0
102
RTVSPropertyOp26
 70
     0
102
RTVSPropertyOp27
 70
     0
102
RTVSPropertyOp28
 70
     0
102
RTVSPropertyOp29
 70
     0
102
RTVSPropertyOp30
 70
     0
102
RTVSPropertyOp31
 70
     0
102
RTVSPropertyOp32
 70
     0
102
RTVSPropertyOp33
 70
     0
102
RTVSPropertyOp34
 70
     0
102
RTVSPropertyOp35
 70
     0
102
RTVSPropertyOp36
 70
     0
102
RTVSPropertyOp37
 70
     0
102
RTVSPropertyOp38
 70
     0
102
RTVSPropertyOp39
 70
     0
102
RTVSPropertyOp40
 70
     0
102
RTVSPropertyOp41
 70
     0
102
RTVSPropertyOp42
 70
     0
102
RTVSPropertyOp43
 70
     0
102
RTVSPropertyOp44
 70
     0
102
RTVSPropertyOp45
 70
     0
102
RTVSPropertyOp46
 70
     0
102
RTVSPropertyOp47
 70
     0
102
RTVSPropertyOp48
 70
     0
102
RTVSPropertyOp49
 70
     0
102
RTVSPropertyOp50
 70
     0
102
RTVSPropertyOp51
 70
     0
102
RTVSPropertyOp52
 70
     0
102
RTVSPropertyOp53
 70
     0
102
RTVSPropertyOp54
 70
     0
102
RTVSPropertyOp55
 70
     0
102
RTVSPropertyOp56
 70
     0
102
RTVSPropertyOp57
 70
     0
102
RTVSPost2010Prop28
280
     0
102
RTVSPost2010PropOp28
 70
     0
102
RTVSPost2010Prop29
280
     1
102
RTVSPost2010PropOp29
 70
     0
102
RTVSPost2010Prop30
280
     1
102
RTVSPost2010PropOp30
 70
     0
102
RTVSPost2010Prop31
280
     0
102
RTVSPost2010PropOp31
 70
     0
102
RTVSPost2010Prop32
280
     0
102
RTVSPost2010PropOp32
 70
     0
102
RTVSPost2010Prop33
280
     0
102
RTVSPost2010PropOp33
 70
     0
102
RTVSPost2010Prop34
280
     0
102
RTVSPost2010PropOp34
 70
     0
102
RTVSPost2010Prop35
280
     0
102
RTVSPost2010PropOp35
 70
     0
102
RTVSPost2010Prop36
280
     0
102
RTVSPost2010PropOp36
 70
     0
102
RTVSPost2010Prop37
 90
       50
102
RTVSPost2010PropOp37
 70
     0
102
RTVSPost2010Prop38
140
0.0
102
RTVSPost2010PropOp38
 70
     0
102
RTVSPost2010Prop39
140
1.0
102
RTVSPost2010PropOp39
 70
     0
102
RTVSPost2010Prop40
 90
        0
102
RTVSPost2010PropOp40
 70
     0
102
RTVSPost2010Prop41ColorIndex
 90
       18
102
RTVSPost2010Prop41ColorRGB
 90
        0
102
RTVSPost2010PropOp41
 70
     0
102
RTVSPost2010Prop42
 90
       50
102
RTVSPost2010PropOp42
 70
     0
102
RTVSPost2010Prop43
 90
        3
102
RTVSPost2010PropOp43
 70
     0
102
RTVSPost2010Prop44ColorIndex
 90
        5
102
RTVSPost2010Prop44ColorRGB
 90
      255
102
RTVSPost2010PropOp44
 70
     0
102
RTVSPost2010Prop45
280
     0
102
RTVSPost2010PropOp45
 70
     0
102
RTVSPost2010Prop46
 90
       50
102
RTVSPost2010PropOp46
 70
     0
102
RTVSPost2010Prop47
 90
       50
102
RTVSPost2010PropOp47
 70
     0
102
RTVSPost2010Prop48
 90
       50
102
RTVSPost2010PropOp48
 70
     0
102
RTVSPost2010Prop49
280
     0
102
RTVSPost2010PropOp49
 70
     0
102
RTVSPost2010Prop50
 90
       50
102
RTVSPost2010PropOp50
 70
     0
102
RTVSPost2010Prop51ColorIndex
 90
      256
102
RTVSPost2010Prop51ColorRGB
 90
-16777216
102
RTVSPost2010PropOp51
 70
     0
102
RTVSPost2010Prop52
140
1.0
102
RTVSPost2010PropOp52
 70
     0
102
RTVSPost2010Prop53
 90
        2
102
RTVSPost2010PropOp53
 70
     0
102
RTVSPost2010Prop54
  1
strokes_ogs.tif
102
RTVSPost2010PropOp54
 70
     0
102
RTVSPost2010Prop55
280
     0
102
RTVSPost2010PropOp55
 70
     0
102
RTVSPost2010Prop56
140
1.0
102
RTVSPost2010PropOp56
 70
     0
102
RTVSPost2010Prop57
140
1.0
102
RTVSPost2010PropOp57
 70
     0
  0
XRECORD
  5
153
102
{ACAD_REACTORS
330
152
102
}
330
152
100
AcDbXrecord
280
     1
102
RTVSPropertyOp0
 70
     1
102
RTVSPropertyOp1
 70
     1
102
RTVSPropertyOp2
 70
     1
102
RTVSPropertyOp3
 70
     1
102
RTVSPropertyOp4
 70
     1
102
RTVSPropertyOp5
 70
     1
102
RTVSPropertyOp6
 70
     1
102
RTVSPropertyOp7
 70
     1
102
RTVSPropertyOp8
 70
     1
102
RTVSPropertyOp9
 70
     1
102
RTVSPropertyOp10
 70
     1
102
RTVSPropertyOp11
 70
     1
102
RTVSPropertyOp12
 70
     1
102
RTVSPropertyOp13
 70
     1
102
RTVSPropertyOp14
 70
     1
102
RTVSPropertyOp15
 70
     1
102
RTVSPropertyOp16
 70
     1
102
RTVSPropertyOp17
 70
     1
102
RTVSPropertyOp18
 70
     1
102
RTVSPropertyOp19
 70
     1
102
RTVSPropertyOp20
 70
     1
102
RTVSPropertyOp21
 70
     1
102
RTVSPropertyOp22
 70
     1
102
RTVSPropertyOp23
 70
     1
102
RTVSPropertyOp24
 70
     1
102
RTVSPropertyOp25
 70
     1
102
RTVSPropertyOp26
 70
     1
102
RTVSPropertyOp27
 70
     1
102
RTVSPropertyOp28
 70
     1
102
RTVSPropertyOp29
 70
     1
102
RTVSPropertyOp30
 70
     1
102
RTVSPropertyOp31
 70
     1
102
RTVSPropertyOp32
 70
     1
102
RTVSPropertyOp33
 70
     1
102
RTVSPropertyOp34
 70
     1
102
RTVSPropertyOp35
 70
     1
102
RTVSPropertyOp36
 70
     1
102
RTVSPropertyOp37
 70
     1
102
RTVSPropertyOp38
 70
     1
102
RTVSPropertyOp39
 70
     1
102
RTVSPropertyOp40
 70
     1
102
RTVSPropertyOp41
 70
     1
102
RTVSPropertyOp42
 70
     1
102
RTVSPropertyOp43
 70
     1
102
RTVSPropertyOp44
 70
     1
102
RTVSPropertyOp45
 70
     1
102
RTVSPropertyOp46
 70
     1
102
RTVSPropertyOp47
 70
     1
102
RTVSPropertyOp48
 70
     1
102
RTVSPropertyOp49
 70
     1
102
RTVSPropertyOp50
 70
     1
102
RTVSPropertyOp51
 70
     0
102
RTVSPropertyOp52
 70
     0
102
RTVSPropertyOp53
 70
     1
102
RTVSPropertyOp54
 70
     1
102
RTVSPropertyOp55
 70
     1
102
RTVSPropertyOp56
 70
     1
102
RTVSPropertyOp57
 70
     1
102
RTVSPost2010Prop28
280
     0
102
RTVSPost2010PropOp28
 70
     1
102
RTVSPost2010Prop29
280
     1
102
RTVSPost2010PropOp29
 70
     1
102
RTVSPost2010Prop30
280
     1
102
RTVSPost2010PropOp30
 70
     1
102
RTVSPost2010Prop31
280
     0
102
RTVSPost2010PropOp31
 70
     1
102
RTVSPost2010Prop32
280
     0
102
RTVSPost2010PropOp32
 70
     1
102
RTVSPost2010Prop33
280
     0
102
RTVSPost2010PropOp33
 70
     1
102
RTVSPost2010Prop34
280
     0
102
RTVSPost2010PropOp34
 70
     1
102
RTVSPost2010Prop35
280
     0
102
RTVSPost2010PropOp35
 70
     1
102
RTVSPost2010Prop36
280
     0
102
RTVSPost2010PropOp36
 70
     1
102
RTVSPost2010Prop37
 90
       50
102
RTVSPost2010PropOp37
 70
     1
102
RTVSPost2010Prop38
140
0.0
102
RTVSPost2010PropOp38
 70
     1
102
RTVSPost2010Prop39
140
1.0
102
RTVSPost2010PropOp39
 70
     1
102
RTVSPost2010Prop40
 90
        0
102
RTVSPost2010PropOp40
 70
     1
102
RTVSPost2010Prop41ColorIndex
 90
       18
102
RTVSPost2010Prop41ColorRGB
 90
        0
102
RTVSPost2010PropOp41
 70
     1
102
RTVSPost2010Prop42
 90
       50
102
RTVSPost2010PropOp42
 70
     1
102
RTVSPost2010Prop43
 90
        3
102
RTVSPost2010PropOp43
 70
     1
102
RTVSPost2010Prop44ColorIndex
 90
        5
102
RTVSPost2010Prop44ColorRGB
 90
      255
102
RTVSPost2010PropOp44
 70
     1
102
RTVSPost2010Prop45
280
     0
102
RTVSPost2010PropOp45
 70
     1
102
RTVSPost2010Prop46
 90
       50
102
RTVSPost2010PropOp46
 70
     1
102
RTVSPost2010Prop47
 90
       50
102
RTVSPost2010PropOp47
 70
     1
102
RTVSPost2010Prop48
 90
       50
102
RTVSPost2010PropOp48
 70
     1
102
RTVSPost2010Prop49
280
     0
102
RTVSPost2010PropOp49
 70
     1
102
RTVSPost2010Prop50
 90
       50
102
RTVSPost2010PropOp50
 70
     1
102
RTVSPost2010Prop51ColorIndex
 90
      256
102
RTVSPost2010Prop51ColorRGB
 90
-16777216
102
RTVSPost2010PropOp51
 70
     0
102
RTVSPost2010Prop52
140
1.0
102
RTVSPost2010PropOp52
 70
     0
102
RTVSPost2010Prop53
 90
        2
102
RTVSPost2010PropOp53
 70
     1
102
RTVSPost2010Prop54
  1
strokes_ogs.tif
102
RTVSPost2010PropOp54
 70
     1
102
RTVSPost2010Prop55
280
     0
102
RTVSPost2010PropOp55
 70
     1
102
RTVSPost2010Prop56
140
1.0
102
RTVSPost2010PropOp56
 70
     1
102
RTVSPost2010Prop57
140
1.0
102
RTVSPost2010PropOp57
 70
     1
  0
XRECORD
  5
137
102
{ACAD_REACTORS
330
136
102
}
330
136
100
AcDbXrecord
280
     1
102
RTVSPropertyOp0
 70
     1
102
RTVSPropertyOp1
 70
     1
102
RTVSPropertyOp2
 70
     1
102
RTVSPropertyOp3
 70
     1
102
RTVSPropertyOp4
 70
     1
102
RTVSPropertyOp5
 70
     1
102
RTVSPropertyOp6
 70
     1
102
RTVSPropertyOp7
 70
     1
102
RTVSPropertyOp8
 70
     1
102
RTVSPropertyOp9
 70
     1
102
RTVSPropertyOp10
 70
     1
102
RTVSPropertyOp11
 70
     1
102
RTVSPropertyOp12
 70
     1
102
RTVSPropertyOp13
 70
     1
102
RTVSPropertyOp14
 70
     1
102
RTVSPropertyOp15
 70
     1
102
RTVSPropertyOp16
 70
     1
102
RTVSPropertyOp17
 70
     1
102
RTVSPropertyOp18
 70
     1
102
RTVSPropertyOp19
 70
     1
102
RTVSPropertyOp20
 70
     1
102
RTVSPropertyOp21
 70
     1
102
RTVSPropertyOp22
 70
     1
102
RTVSPropertyOp23
 70
     1
102
RTVSPropertyOp24
 70
     1
102
RTVSPropertyOp25
 70
     1
102
RTVSPropertyOp26
 70
     1
102
RTVSPropertyOp27
 70
     1
102
RTVSPropertyOp28
 70
     1
102
RTVSPropertyOp29
 70
     1
102
RTVSPropertyOp30
 70
     1
102
RTVSPropertyOp31
 70
     1
102
RTVSPropertyOp32
 70
     1
102
RTVSPropertyOp33
 70
     1
102
RTVSPropertyOp34
 70
     1
102
RTVSPropertyOp35
 70
     1
102
RTVSPropertyOp36
 70
     1
102
RTVSPropertyOp37
 70
     1
102
RTVSPropertyOp38
 70
     1
102
RTVSPropertyOp39
 70
     1
102
RTVSPropertyOp40
 70
     1
102
RTVSPropertyOp41
 70
     1
102
RTVSPropertyOp42
 70
     1
102
RTVSPropertyOp43
 70
     1
102
RTVSPropertyOp44
 70
     1
102
RTVSPropertyOp45
 70
     1
102
RTVSPropertyOp46
 70
     1
102
RTVSPropertyOp47
 70
     1
102
RTVSPropertyOp48
 70
     1
102
RTVSPropertyOp49
 70
     1
102
RTVSPropertyOp50
 70
     1
102
RTVSPropertyOp51
 70
     0
102
RTVSPropertyOp52
 70
     0
102
RTVSPropertyOp53
 70
     1
102
RTVSPropertyOp54
 70
     1
102
RTVSPropertyOp55
 70
     1
102
RTVSPropertyOp56
 70
     1
102
RTVSPropertyOp57
 70
     1
102
RTVSPost2010Prop28
280
     0
102
RTVSPost2010PropOp28
 70
     1
102
RTVSPost2010Prop29
280
     1
102
RTVSPost2010PropOp29
 70
     1
102
RTVSPost2010Prop30
280
     1
102
RTVSPost2010PropOp30
 70
     1
102
RTVSPost2010Prop31
280
     0
102
RTVSPost2010PropOp31
 70
     1
102
RTVSPost2010Prop32
280
     0
102
RTVSPost2010PropOp32
 70
     1
102
RTVSPost2010Prop33
280
     0
102
RTVSPost2010PropOp33
 70
     1
102
RTVSPost2010Prop34
280
     0
102
RTVSPost2010PropOp34
 70
     1
102
RTVSPost2010Prop35
280
     0
102
RTVSPost2010PropOp35
 70
     1
102
RTVSPost2010Prop36
280
     0
102
RTVSPost2010PropOp36
 70
     1
102
RTVSPost2010Prop37
 90
       50
102
RTVSPost2010PropOp37
 70
     1
102
RTVSPost2010Prop38
140
0.0
102
RTVSPost2010PropOp38
 70
     1
102
RTVSPost2010Prop39
140
1.0
102
RTVSPost2010PropOp39
 70
     1
102
RTVSPost2010Prop40
 90
        0
102
RTVSPost2010PropOp40
 70
     1
102
RTVSPost2010Prop41ColorIndex
 90
       18
102
RTVSPost2010Prop41ColorRGB
 90
        0
102
RTVSPost2010PropOp41
 70
     1
102
RTVSPost2010Prop42
 90
       50
102
RTVSPost2010PropOp42
 70
     1
102
RTVSPost2010Prop43
 90
        3
102
RTVSPost2010PropOp43
 70
     1
102
RTVSPost2010Prop44ColorIndex
 90
        5
102
RTVSPost2010Prop44ColorRGB
 90
      255
102
RTVSPost2010PropOp44
 70
     1
102
RTVSPost2010Prop45
280
     0
102
RTVSPost2010PropOp45
 70
     1
102
RTVSPost2010Prop46
 90
       50
102
RTVSPost2010PropOp46
 70
     1
102
RTVSPost2010Prop47
 90
       50
102
RTVSPost2010PropOp47
 70
     1
102
RTVSPost2010Prop48
 90
       50
102
RTVSPost2010PropOp48
 70
     1
102
RTVSPost2010Prop49
280
     0
102
RTVSPost2010PropOp49
 70
     1
102
RTVSPost2010Prop50
 90
       50
102
RTVSPost2010PropOp50
 70
     1
102
RTVSPost2010Prop51ColorIndex
 90
      256
102
RTVSPost2010Prop51ColorRGB
 90
-16777216
102
RTVSPost2010PropOp51
 70
     0
102
RTVSPost2010Prop52
140
1.0
102
RTVSPost2010PropOp52
 70
     0
102
RTVSPost2010Prop53
 90
        2
102
RTVSPost2010PropOp53
 70
     1
102
RTVSPost2010Prop54
  1
strokes_ogs.tif
102
RTVSPost2010PropOp54
 70
     1
102
RTVSPost2010Prop55
280
     0
102
RTVSPost2010PropOp55
 70
     1
102
RTVSPost2010Prop56
140
1.0
102
RTVSPost2010PropOp56
 70
     1
102
RTVSPost2010Prop57
140
1.0
102
RTVSPost2010PropOp57
 70
     1
  0
XRECORD
  5
139
102
{ACAD_REACTORS
330
138
102
}
330
138
100
AcDbXrecord
280
     1
102
RTVSPropertyOp0
 70
     1
102
RTVSPropertyOp1
 70
     1
102
RTVSPropertyOp2
 70
     1
102
RTVSPropertyOp3
 70
     1
102
RTVSPropertyOp4
 70
     1
102
RTVSPropertyOp5
 70
     1
102
RTVSPropertyOp6
 70
     1
102
RTVSPropertyOp7
 70
     1
102
RTVSPropertyOp8
 70
     1
102
RTVSPropertyOp9
 70
     1
102
RTVSPropertyOp10
 70
     1
102
RTVSPropertyOp11
 70
     1
102
RTVSPropertyOp12
 70
     1
102
RTVSPropertyOp13
 70
     1
102
RTVSPropertyOp14
 70
     1
102
RTVSPropertyOp15
 70
     1
102
RTVSPropertyOp16
 70
     1
102
RTVSPropertyOp17
 70
     1
102
RTVSPropertyOp18
 70
     1
102
RTVSPropertyOp19
 70
     1
102
RTVSPropertyOp20
 70
     1
102
RTVSPropertyOp21
 70
     1
102
RTVSPropertyOp22
 70
     1
102
RTVSPropertyOp23
 70
     1
102
RTVSPropertyOp24
 70
     1
102
RTVSPropertyOp25
 70
     1
102
RTVSPropertyOp26
 70
     1
102
RTVSPropertyOp27
 70
     1
102
RTVSPropertyOp28
 70
     1
102
RTVSPropertyOp29
 70
     1
102
RTVSPropertyOp30
 70
     1
102
RTVSPropertyOp31
 70
     1
102
RTVSPropertyOp32
 70
     1
102
RTVSPropertyOp33
 70
     1
102
RTVSPropertyOp34
 70
     1
102
RTVSPropertyOp35
 70
     1
102
RTVSPropertyOp36
 70
     1
102
RTVSPropertyOp37
 70
     1
102
RTVSPropertyOp38
 70
     1
102
RTVSPropertyOp39
 70
     1
102
RTVSPropertyOp40
 70
     1
102
RTVSPropertyOp41
 70
     1
102
RTVSPropertyOp42
 70
     1
102
RTVSPropertyOp43
 70
     1
102
RTVSPropertyOp44
 70
     1
102
RTVSPropertyOp45
 70
     1
102
RTVSPropertyOp46
 70
     1
102
RTVSPropertyOp47
 70
     1
102
RTVSPropertyOp48
 70
     1
102
RTVSPropertyOp49
 70
     1
102
RTVSPropertyOp50
 70
     1
102
RTVSPropertyOp51
 70
     0
102
RTVSPropertyOp52
 70
     0
102
RTVSPropertyOp53
 70
     1
102
RTVSPropertyOp54
 70
     1
102
RTVSPropertyOp55
 70
     1
102
RTVSPropertyOp56
 70
     1
102
RTVSPropertyOp57
 70
     1
102
RTVSPost2010Prop28
280
     0
102
RTVSPost2010PropOp28
 70
     1
102
RTVSPost2010Prop29
280
     1
102
RTVSPost2010PropOp29
 70
     1
102
RTVSPost2010Prop30
280
     1
102
RTVSPost2010PropOp30
 70
     1
102
RTVSPost2010Prop31
280
     0
102
RTVSPost2010PropOp31
 70
     1
102
RTVSPost2010Prop32
280
     0
102
RTVSPost2010PropOp32
 70
     1
102
RTVSPost2010Prop33
280
     0
102
RTVSPost2010PropOp33
 70
     1
102
RTVSPost2010Prop34
280
     0
102
RTVSPost2010PropOp34
 70
     1
102
RTVSPost2010Prop35
280
     0
102
RTVSPost2010PropOp35
 70
     1
102
RTVSPost2010Prop36
280
     0
102
RTVSPost2010PropOp36
 70
     1
102
RTVSPost2010Prop37
 90
       50
102
RTVSPost2010PropOp37
 70
     1
102
RTVSPost2010Prop38
140
0.0
102
RTVSPost2010PropOp38
 70
     1
102
RTVSPost2010Prop39
140
1.0
102
RTVSPost2010PropOp39
 70
     1
102
RTVSPost2010Prop40
 90
        0
102
RTVSPost2010PropOp40
 70
     1
102
RTVSPost2010Prop41ColorIndex
 90
       18
102
RTVSPost2010Prop41ColorRGB
 90
        0
102
RTVSPost2010PropOp41
 70
     1
102
RTVSPost2010Prop42
 90
       50
102
RTVSPost2010PropOp42
 70
     1
102
RTVSPost2010Prop43
 90
        3
102
RTVSPost2010PropOp43
 70
     1
102
RTVSPost2010Prop44ColorIndex
 90
        5
102
RTVSPost2010Prop44ColorRGB
 90
      255
102
RTVSPost2010PropOp44
 70
     1
102
RTVSPost2010Prop45
280
     0
102
RTVSPost2010PropOp45
 70
     1
102
RTVSPost2010Prop46
 90
       50
102
RTVSPost2010PropOp46
 70
     1
102
RTVSPost2010Prop47
 90
       50
102
RTVSPost2010PropOp47
 70
     1
102
RTVSPost2010Prop48
 90
       50
102
RTVSPost2010PropOp48
 70
     1
102
RTVSPost2010Prop49
280
     0
102
RTVSPost2010PropOp49
 70
     1
102
RTVSPost2010Prop50
 90
       50
102
RTVSPost2010PropOp50
 70
     1
102
RTVSPost2010Prop51ColorIndex
 90
      256
102
RTVSPost2010Prop51ColorRGB
 90
-16777216
102
RTVSPost2010PropOp51
 70
     0
102
RTVSPost2010Prop52
140
1.0
102
RTVSPost2010PropOp52
 70
     0
102
RTVSPost2010Prop53
 90
        2
102
RTVSPost2010PropOp53
 70
     1
102
RTVSPost2010Prop54
  1
strokes_ogs.tif
102
RTVSPost2010PropOp54
 70
     1
102
RTVSPost2010Prop55
280
     0
102
RTVSPost2010PropOp55
 70
     1
102
RTVSPost2010Prop56
140
1.0
102
RTVSPost2010PropOp56
 70
     1
102
RTVSPost2010Prop57
140
1.0
102
RTVSPost2010PropOp57
 70
     1
  0
XRECORD
  5
13B
102
{ACAD_REACTORS
330
13A
102
}
330
13A
100
AcDbXrecord
280
     1
102
RTVSPropertyOp0
 70
     1
102
RTVSPropertyOp1
 70
     1
102
RTVSPropertyOp2
 70
     1
102
RTVSPropertyOp3
 70
     1
102
RTVSPropertyOp4
 70
     1
102
RTVSPropertyOp5
 70
     1
102
RTVSPropertyOp6
 70
     1
102
RTVSPropertyOp7
 70
     1
102
RTVSPropertyOp8
 70
     1
102
RTVSPropertyOp9
 70
     1
102
RTVSPropertyOp10
 70
     1
102
RTVSPropertyOp11
 70
     1
102
RTVSPropertyOp12
 70
     1
102
RTVSPropertyOp13
 70
     1
102
RTVSPropertyOp14
 70
     1
102
RTVSPropertyOp15
 70
     1
102
RTVSPropertyOp16
 70
     1
102
RTVSPropertyOp17
 70
     1
102
RTVSPropertyOp18
 70
     1
102
RTVSPropertyOp19
 70
     1
102
RTVSPropertyOp20
 70
     1
102
RTVSPropertyOp21
 70
     1
102
RTVSPropertyOp22
 70
     1
102
RTVSPropertyOp23
 70
     1
102
RTVSPropertyOp24
 70
     1
102
RTVSPropertyOp25
 70
     1
102
RTVSPropertyOp26
 70
     1
102
RTVSPropertyOp27
 70
     1
102
RTVSPropertyOp28
 70
     1
102
RTVSPropertyOp29
 70
     1
102
RTVSPropertyOp30
 70
     1
102
RTVSPropertyOp31
 70
     1
102
RTVSPropertyOp32
 70
     1
102
RTVSPropertyOp33
 70
     1
102
RTVSPropertyOp34
 70
     1
102
RTVSPropertyOp35
 70
     1
102
RTVSPropertyOp36
 70
     1
102
RTVSPropertyOp37
 70
     1
102
RTVSPropertyOp38
 70
     1
102
RTVSPropertyOp39
 70
     1
102
RTVSPropertyOp40
 70
     1
102
RTVSPropertyOp41
 70
     1
102
RTVSPropertyOp42
 70
     1
102
RTVSPropertyOp43
 70
     1
102
RTVSPropertyOp44
 70
     1
102
RTVSPropertyOp45
 70
     1
102
RTVSPropertyOp46
 70
     1
102
RTVSPropertyOp47
 70
     1
102
RTVSPropertyOp48
 70
     1
102
RTVSPropertyOp49
 70
     1
102
RTVSPropertyOp50
 70
     1
102
RTVSPropertyOp51
 70
     0
102
RTVSPropertyOp52
 70
     0
102
RTVSPropertyOp53
 70
     1
102
RTVSPropertyOp54
 70
     1
102
RTVSPropertyOp55
 70
     1
102
RTVSPropertyOp56
 70
     1
102
RTVSPropertyOp57
 70
     1
102
RTVSPost2010Prop28
280
     0
102
RTVSPost2010PropOp28
 70
     1
102
RTVSPost2010Prop29
280
     1
102
RTVSPost2010PropOp29
 70
     1
102
RTVSPost2010Prop30
280
     1
102
RTVSPost2010PropOp30
 70
     1
102
RTVSPost2010Prop31
280
     0
102
RTVSPost2010PropOp31
 70
     1
102
RTVSPost2010Prop32
280
     0
102
RTVSPost2010PropOp32
 70
     1
102
RTVSPost2010Prop33
280
     0
102
RTVSPost2010PropOp33
 70
     1
102
RTVSPost2010Prop34
280
     0
102
RTVSPost2010PropOp34
 70
     1
102
RTVSPost2010Prop35
280
     0
102
RTVSPost2010PropOp35
 70
     1
102
RTVSPost2010Prop36
280
     0
102
RTVSPost2010PropOp36
 70
     1
102
RTVSPost2010Prop37
 90
       50
102
RTVSPost2010PropOp37
 70
     1
102
RTVSPost2010Prop38
140
0.0
102
RTVSPost2010PropOp38
 70
     1
102
RTVSPost2010Prop39
140
1.0
102
RTVSPost2010PropOp39
 70
     1
102
RTVSPost2010Prop40
 90
        0
102
RTVSPost2010PropOp40
 70
     1
102
RTVSPost2010Prop41ColorIndex
 90
       18
102
RTVSPost2010Prop41ColorRGB
 90
        0
102
RTVSPost2010PropOp41
 70
     1
102
RTVSPost2010Prop42
 90
       50
102
RTVSPost2010PropOp42
 70
     1
102
RTVSPost2010Prop43
 90
        3
102
RTVSPost2010PropOp43
 70
     1
102
RTVSPost2010Prop44ColorIndex
 90
        5
102
RTVSPost2010Prop44ColorRGB
 90
      255
102
RTVSPost2010PropOp44
 70
     1
102
RTVSPost2010Prop45
280
     0
102
RTVSPost2010PropOp45
 70
     1
102
RTVSPost2010Prop46
 90
       50
102
RTVSPost2010PropOp46
 70
     1
102
RTVSPost2010Prop47
 90
       50
102
RTVSPost2010PropOp47
 70
     1
102
RTVSPost2010Prop48
 90
       50
102
RTVSPost2010PropOp48
 70
     1
102
RTVSPost2010Prop49
280
     0
102
RTVSPost2010PropOp49
 70
     1
102
RTVSPost2010Prop50
 90
       50
102
RTVSPost2010PropOp50
 70
     1
102
RTVSPost2010Prop51ColorIndex
 90
      256
102
RTVSPost2010Prop51ColorRGB
 90
-16777216
102
RTVSPost2010PropOp51
 70
     0
102
RTVSPost2010Prop52
140
1.0
102
RTVSPost2010PropOp52
 70
     0
102
RTVSPost2010Prop53
 90
        2
102
RTVSPost2010PropOp53
 70
     1
102
RTVSPost2010Prop54
  1
strokes_ogs.tif
102
RTVSPost2010PropOp54
 70
     1
102
RTVSPost2010Prop55
280
     0
102
RTVSPost2010PropOp55
 70
     1
102
RTVSPost2010Prop56
140
1.0
102
RTVSPost2010PropOp56
 70
     1
102
RTVSPost2010Prop57
140
1.0
102
RTVSPost2010PropOp57
 70
     1
  0
XRECORD
  5
13D
102
{ACAD_REACTORS
330
13C
102
}
330
13C
100
AcDbXrecord
280
     1
102
RTVSPropertyOp0
 70
     1
102
RTVSPropertyOp1
 70
     1
102
RTVSPropertyOp2
 70
     1
102
RTVSPropertyOp3
 70
     1
102
RTVSPropertyOp4
 70
     1
102
RTVSPropertyOp5
 70
     1
102
RTVSPropertyOp6
 70
     1
102
RTVSPropertyOp7
 70
     1
102
RTVSPropertyOp8
 70
     1
102
RTVSPropertyOp9
 70
     1
102
RTVSPropertyOp10
 70
     1
102
RTVSPropertyOp11
 70
     1
102
RTVSPropertyOp12
 70
     1
102
RTVSPropertyOp13
 70
     1
102
RTVSPropertyOp14
 70
     1
102
RTVSPropertyOp15
 70
     1
102
RTVSPropertyOp16
 70
     1
102
RTVSPropertyOp17
 70
     1
102
RTVSPropertyOp18
 70
     1
102
RTVSPropertyOp19
 70
     1
102
RTVSPropertyOp20
 70
     1
102
RTVSPropertyOp21
 70
     1
102
RTVSPropertyOp22
 70
     1
102
RTVSPropertyOp23
 70
     1
102
RTVSPropertyOp24
 70
     1
102
RTVSPropertyOp25
 70
     1
102
RTVSPropertyOp26
 70
     1
102
RTVSPropertyOp27
 70
     1
102
RTVSPropertyOp28
 70
     1
102
RTVSPropertyOp29
 70
     1
102
RTVSPropertyOp30
 70
     1
102
RTVSPropertyOp31
 70
     1
102
RTVSPropertyOp32
 70
     1
102
RTVSPropertyOp33
 70
     1
102
RTVSPropertyOp34
 70
     1
102
RTVSPropertyOp35
 70
     1
102
RTVSPropertyOp36
 70
     1
102
RTVSPropertyOp37
 70
     1
102
RTVSPropertyOp38
 70
     1
102
RTVSPropertyOp39
 70
     1
102
RTVSPropertyOp40
 70
     1
102
RTVSPropertyOp41
 70
     1
102
RTVSPropertyOp42
 70
     1
102
RTVSPropertyOp43
 70
     1
102
RTVSPropertyOp44
 70
     1
102
RTVSPropertyOp45
 70
     1
102
RTVSPropertyOp46
 70
     1
102
RTVSPropertyOp47
 70
     1
102
RTVSPropertyOp48
 70
     1
102
RTVSPropertyOp49
 70
     1
102
RTVSPropertyOp50
 70
     1
102
RTVSPropertyOp51
 70
     0
102
RTVSPropertyOp52
 70
     0
102
RTVSPropertyOp53
 70
     1
102
RTVSPropertyOp54
 70
     1
102
RTVSPropertyOp55
 70
     1
102
RTVSPropertyOp56
 70
     1
102
RTVSPropertyOp57
 70
     1
102
RTVSPost2010Prop28
280
     0
102
RTVSPost2010PropOp28
 70
     1
102
RTVSPost2010Prop29
280
     1
102
RTVSPost2010PropOp29
 70
     1
102
RTVSPost2010Prop30
280
     1
102
RTVSPost2010PropOp30
 70
     1
102
RTVSPost2010Prop31
280
     0
102
RTVSPost2010PropOp31
 70
     1
102
RTVSPost2010Prop32
280
     0
102
RTVSPost2010PropOp32
 70
     1
102
RTVSPost2010Prop33
280
     0
102
RTVSPost2010PropOp33
 70
     1
102
RTVSPost2010Prop34
280
     0
102
RTVSPost2010PropOp34
 70
     1
102
RTVSPost2010Prop35
280
     0
102
RTVSPost2010PropOp35
 70
     1
102
RTVSPost2010Prop36
280
     0
102
RTVSPost2010PropOp36
 70
     1
102
RTVSPost2010Prop37
 90
       50
102
RTVSPost2010PropOp37
 70
     1
102
RTVSPost2010Prop38
140
0.0
102
RTVSPost2010PropOp38
 70
     1
102
RTVSPost2010Prop39
140
1.0
102
RTVSPost2010PropOp39
 70
     1
102
RTVSPost2010Prop40
 90
        0
102
RTVSPost2010PropOp40
 70
     1
102
RTVSPost2010Prop41ColorIndex
 90
       18
102
RTVSPost2010Prop41ColorRGB
 90
        0
102
RTVSPost2010PropOp41
 70
     1
102
RTVSPost2010Prop42
 90
       50
102
RTVSPost2010PropOp42
 70
     1
102
RTVSPost2010Prop43
 90
        3
102
RTVSPost2010PropOp43
 70
     1
102
RTVSPost2010Prop44ColorIndex
 90
        5
102
RTVSPost2010Prop44ColorRGB
 90
      255
102
RTVSPost2010PropOp44
 70
     1
102
RTVSPost2010Prop45
280
     0
102
RTVSPost2010PropOp45
 70
     1
102
RTVSPost2010Prop46
 90
       50
102
RTVSPost2010PropOp46
 70
     1
102
RTVSPost2010Prop47
 90
       50
102
RTVSPost2010PropOp47
 70
     1
102
RTVSPost2010Prop48
 90
       50
102
RTVSPost2010PropOp48
 70
     1
102
RTVSPost2010Prop49
280
     0
102
RTVSPost2010PropOp49
 70
     1
102
RTVSPost2010Prop50
 90
       50
102
RTVSPost2010PropOp50
 70
     1
102
RTVSPost2010Prop51ColorIndex
 90
      256
102
RTVSPost2010Prop51ColorRGB
 90
-16777216
102
RTVSPost2010PropOp51
 70
     0
102
RTVSPost2010Prop52
140
1.0
102
RTVSPost2010PropOp52
 70
     0
102
RTVSPost2010Prop53
 90
        2
102
RTVSPost2010PropOp53
 70
     1
102
RTVSPost2010Prop54
  1
strokes_ogs.tif
102
RTVSPost2010PropOp54
 70
     1
102
RTVSPost2010Prop55
280
     0
102
RTVSPost2010PropOp55
 70
     1
102
RTVSPost2010Prop56
140
1.0
102
RTVSPost2010PropOp56
 70
     1
102
RTVSPost2010Prop57
140
1.0
102
RTVSPost2010PropOp57
 70
     1
  0
XRECORD
  5
143
102
{ACAD_REACTORS
330
142
102
}
330
142
100
AcDbXrecord
280
     1
102
RTVSPropertyOp0
 70
     1
102
RTVSPropertyOp1
 70
     1
102
RTVSPropertyOp2
 70
     1
102
RTVSPropertyOp3
 70
     1
102
RTVSPropertyOp4
 70
     1
102
RTVSPropertyOp5
 70
     1
102
RTVSPropertyOp6
 70
     1
102
RTVSPropertyOp7
 70
     1
102
RTVSPropertyOp8
 70
     1
102
RTVSPropertyOp9
 70
     1
102
RTVSPropertyOp10
 70
     1
102
RTVSPropertyOp11
 70
     1
102
RTVSPropertyOp12
 70
     1
102
RTVSPropertyOp13
 70
     1
102
RTVSPropertyOp14
 70
     1
102
RTVSPropertyOp15
 70
     1
102
RTVSPropertyOp16
 70
     1
102
RTVSPropertyOp17
 70
     1
102
RTVSPropertyOp18
 70
     1
102
RTVSPropertyOp19
 70
     1
102
RTVSPropertyOp20
 70
     1
102
RTVSPropertyOp21
 70
     1
102
RTVSPropertyOp22
 70
     1
102
RTVSPropertyOp23
 70
     1
102
RTVSPropertyOp24
 70
     1
102
RTVSPropertyOp25
 70
     1
102
RTVSPropertyOp26
 70
     1
102
RTVSPropertyOp27
 70
     1
102
RTVSPropertyOp28
 70
     1
102
RTVSPropertyOp29
 70
     1
102
RTVSPropertyOp30
 70
     1
102
RTVSPropertyOp31
 70
     1
102
RTVSPropertyOp32
 70
     1
102
RTVSPropertyOp33
 70
     1
102
RTVSPropertyOp34
 70
     1
102
RTVSPropertyOp35
 70
     1
102
RTVSPropertyOp36
 70
     1
102
RTVSPropertyOp37
 70
     1
102
RTVSPropertyOp38
 70
     1
102
RTVSPropertyOp39
 70
     1
102
RTVSPropertyOp40
 70
     1
102
RTVSPropertyOp41
 70
     1
102
RTVSPropertyOp42
 70
     1
102
RTVSPropertyOp43
 70
     1
102
RTVSPropertyOp44
 70
     1
102
RTVSPropertyOp45
 70
     1
102
RTVSPropertyOp46
 70
     1
102
RTVSPropertyOp47
 70
     1
102
RTVSPropertyOp48
 70
     1
102
RTVSPropertyOp49
 70
     1
102
RTVSPropertyOp50
 70
     1
102
RTVSPropertyOp51
 70
     0
102
RTVSPropertyOp52
 70
     0
102
RTVSPropertyOp53
 70
     1
102
RTVSPropertyOp54
 70
     1
102
RTVSPropertyOp55
 70
     1
102
RTVSPropertyOp56
 70
     1
102
RTVSPropertyOp57
 70
     1
102
RTVSPost2010Prop28
280
     0
102
RTVSPost2010PropOp28
 70
     1
102
RTVSPost2010Prop29
280
     1
102
RTVSPost2010PropOp29
 70
     1
102
RTVSPost2010Prop30
280
     1
102
RTVSPost2010PropOp30
 70
     1
102
RTVSPost2010Prop31
280
     0
102
RTVSPost2010PropOp31
 70
     1
102
RTVSPost2010Prop32
280
     0
102
RTVSPost2010PropOp32
 70
     1
102
RTVSPost2010Prop33
280
     0
102
RTVSPost2010PropOp33
 70
     1
102
RTVSPost2010Prop34
280
     0
102
RTVSPost2010PropOp34
 70
     1
102
RTVSPost2010Prop35
280
     0
102
RTVSPost2010PropOp35
 70
     1
102
RTVSPost2010Prop36
280
     0
102
RTVSPost2010PropOp36
 70
     1
102
RTVSPost2010Prop37
 90
       50
102
RTVSPost2010PropOp37
 70
     1
102
RTVSPost2010Prop38
140
0.0
102
RTVSPost2010PropOp38
 70
     1
102
RTVSPost2010Prop39
140
1.0
102
RTVSPost2010PropOp39
 70
     1
102
RTVSPost2010Prop40
 90
        0
102
RTVSPost2010PropOp40
 70
     1
102
RTVSPost2010Prop41ColorIndex
 90
       18
102
RTVSPost2010Prop41ColorRGB
 90
        0
102
RTVSPost2010PropOp41
 70
     1
102
RTVSPost2010Prop42
 90
       50
102
RTVSPost2010PropOp42
 70
     1
102
RTVSPost2010Prop43
 90
        3
102
RTVSPost2010PropOp43
 70
     1
102
RTVSPost2010Prop44ColorIndex
 90
        5
102
RTVSPost2010Prop44ColorRGB
 90
      255
102
RTVSPost2010PropOp44
 70
     1
102
RTVSPost2010Prop45
280
     0
102
RTVSPost2010PropOp45
 70
     1
102
RTVSPost2010Prop46
 90
       50
102
RTVSPost2010PropOp46
 70
     1
102
RTVSPost2010Prop47
 90
       50
102
RTVSPost2010PropOp47
 70
     1
102
RTVSPost2010Prop48
 90
       50
102
RTVSPost2010PropOp48
 70
     1
102
RTVSPost2010Prop49
280
     0
102
RTVSPost2010PropOp49
 70
     1
102
RTVSPost2010Prop50
 90
       50
102
RTVSPost2010PropOp50
 70
     1
102
RTVSPost2010Prop51ColorIndex
 90
      256
102
RTVSPost2010Prop51ColorRGB
 90
-16777216
102
RTVSPost2010PropOp51
 70
     0
102
RTVSPost2010Prop52
140
1.0
102
RTVSPost2010PropOp52
 70
     0
102
RTVSPost2010Prop53
 90
        2
102
RTVSPost2010PropOp53
 70
     1
102
RTVSPost2010Prop54
  1
strokes_ogs.tif
102
RTVSPost2010PropOp54
 70
     1
102
RTVSPost2010Prop55
280
     0
102
RTVSPost2010PropOp55
 70
     1
102
RTVSPost2010Prop56
140
1.0
102
RTVSPost2010PropOp56
 70
     1
102
RTVSPost2010Prop57
140
1.0
102
RTVSPost2010PropOp57
 70
     1
  0
XRECORD
  5
157
102
{ACAD_REACTORS
330
156
102
}
330
156
100
AcDbXrecord
280
     1
102
RTVSPropertyOp0
 70
     0
102
RTVSPropertyOp1
 70
     0
102
RTVSPropertyOp2
 70
     0
102
RTVSPropertyOp3
 70
     0
102
RTVSPropertyOp4
 70
     0
102
RTVSPropertyOp5
 70
     0
102
RTVSPropertyOp6
 70
     0
102
RTVSPropertyOp7
 70
     0
102
RTVSPropertyOp8
 70
     0
102
RTVSPropertyOp9
 70
     0
102
RTVSPropertyOp10
 70
     0
102
RTVSPropertyOp11
 70
     0
102
RTVSPropertyOp12
 70
     0
102
RTVSPropertyOp13
 70
     0
102
RTVSPropertyOp14
 70
     2
102
RTVSPropertyOp15
 70
     0
102
RTVSPropertyOp16
 70
     0
102
RTVSPropertyOp17
 70
     0
102
RTVSPropertyOp18
 70
     0
102
RTVSPropertyOp19
 70
     0
102
RTVSPropertyOp20
 70
     0
102
RTVSPropertyOp21
 70
     0
102
RTVSPropertyOp22
 70
     0
102
RTVSPropertyOp23
 70
     0
102
RTVSPropertyOp24
 70
     0
102
RTVSPropertyOp25
 70
     0
102
RTVSPropertyOp26
 70
     0
102
RTVSPropertyOp27
 70
     0
102
RTVSPropertyOp28
 70
     0
102
RTVSPropertyOp29
 70
     0
102
RTVSPropertyOp30
 70
     0
102
RTVSPropertyOp31
 70
     0
102
RTVSPropertyOp32
 70
     0
102
RTVSPropertyOp33
 70
     0
102
RTVSPropertyOp34
 70
     0
102
RTVSPropertyOp35
 70
     0
102
RTVSPropertyOp36
 70
     0
102
RTVSPropertyOp37
 70
     0
102
RTVSPropertyOp38
 70
     0
102
RTVSPropertyOp39
 70
     0
102
RTVSPropertyOp40
 70
     0
102
RTVSPropertyOp41
 70
     0
102
RTVSPropertyOp42
 70
     0
102
RTVSPropertyOp43
 70
     0
102
RTVSPropertyOp44
 70
     0
102
RTVSPropertyOp45
 70
     0
102
RTVSPropertyOp46
 70
     0
102
RTVSPropertyOp47
 70
     0
102
RTVSPropertyOp48
 70
     0
102
RTVSPropertyOp49
 70
     0
102
RTVSPropertyOp50
 70
     0
102
RTVSPropertyOp51
 70
     0
102
RTVSPropertyOp52
 70
     0
102
RTVSPropertyOp53
 70
     0
102
RTVSPropertyOp54
 70
     0
102
RTVSPropertyOp55
 70
     0
102
RTVSPropertyOp56
 70
     0
102
RTVSPropertyOp57
 70
     0
102
RTVSPost2010Prop28
280
     0
102
RTVSPost2010PropOp28
 70
     0
102
RTVSPost2010Prop29
280
     1
102
RTVSPost2010PropOp29
 70
     0
102
RTVSPost2010Prop30
280
     1
102
RTVSPost2010PropOp30
 70
     0
102
RTVSPost2010Prop31
280
     0
102
RTVSPost2010PropOp31
 70
     0
102
RTVSPost2010Prop32
280
     0
102
RTVSPost2010PropOp32
 70
     0
102
RTVSPost2010Prop33
280
     0
102
RTVSPost2010PropOp33
 70
     0
102
RTVSPost2010Prop34
280
     0
102
RTVSPost2010PropOp34
 70
     0
102
RTVSPost2010Prop35
280
     0
102
RTVSPost2010PropOp35
 70
     0
102
RTVSPost2010Prop36
280
     0
102
RTVSPost2010PropOp36
 70
     0
102
RTVSPost2010Prop37
 90
       50
102
RTVSPost2010PropOp37
 70
     0
102
RTVSPost2010Prop38
140
0.0
102
RTVSPost2010PropOp38
 70
     0
102
RTVSPost2010Prop39
140
1.0
102
RTVSPost2010PropOp39
 70
     0
102
RTVSPost2010Prop40
 90
        0
102
RTVSPost2010PropOp40
 70
     0
102
RTVSPost2010Prop41ColorIndex
 90
       18
102
RTVSPost2010Prop41ColorRGB
 90
        0
102
RTVSPost2010PropOp41
 70
     0
102
RTVSPost2010Prop42
 90
       50
102
RTVSPost2010PropOp42
 70
     0
102
RTVSPost2010Prop43
 90
        3
102
RTVSPost2010PropOp43
 70
     0
102
RTVSPost2010Prop44ColorIndex
 90
        5
102
RTVSPost2010Prop44ColorRGB
 90
      255
102
RTVSPost2010PropOp44
 70
     0
102
RTVSPost2010Prop45
280
     0
102
RTVSPost2010PropOp45
 70
     0
102
RTVSPost2010Prop46
 90
       50
102
RTVSPost2010PropOp46
 70
     0
102
RTVSPost2010Prop47
 90
       50
102
RTVSPost2010PropOp47
 70
     0
102
RTVSPost2010Prop48
 90
       50
102
RTVSPost2010PropOp48
 70
     0
102
RTVSPost2010Prop49
280
     0
102
RTVSPost2010PropOp49
 70
     0
102
RTVSPost2010Prop50
 90
       50
102
RTVSPost2010PropOp50
 70
     0
102
RTVSPost2010Prop51ColorIndex
 90
      256
102
RTVSPost2010Prop51ColorRGB
 90
-16777216
102
RTVSPost2010PropOp51
 70
     0
102
RTVSPost2010Prop52
140
1.0
102
RTVSPost2010PropOp52
 70
     0
102
RTVSPost2010Prop53
 90
        2
102
RTVSPost2010PropOp53
 70
     0
102
RTVSPost2010Prop54
  1
strokes_ogs.tif
102
RTVSPost2010PropOp54
 70
     0
102
RTVSPost2010Prop55
280
     0
102
RTVSPost2010PropOp55
 70
     0
102
RTVSPost2010Prop56
140
1.0
102
RTVSPost2010PropOp56
 70
     0
102
RTVSPost2010Prop57
140
1.0
102
RTVSPost2010PropOp57
 70
     0
  0
XRECORD
  5
151
102
{ACAD_REACTORS
330
150
102
}
330
150
100
AcDbXrecord
280
     1
102
RTVSPropertyOp0
 70
     1
102
RTVSPropertyOp1
 70
     1
102
RTVSPropertyOp2
 70
     1
102
RTVSPropertyOp3
 70
     1
102
RTVSPropertyOp4
 70
     1
102
RTVSPropertyOp5
 70
     1
102
RTVSPropertyOp6
 70
     1
102
RTVSPropertyOp7
 70
     1
102
RTVSPropertyOp8
 70
     1
102
RTVSPropertyOp9
 70
     1
102
RTVSPropertyOp10
 70
     1
102
RTVSPropertyOp11
 70
     1
102
RTVSPropertyOp12
 70
     1
102
RTVSPropertyOp13
 70
     1
102
RTVSPropertyOp14
 70
     1
102
RTVSPropertyOp15
 70
     1
102
RTVSPropertyOp16
 70
     1
102
RTVSPropertyOp17
 70
     1
102
RTVSPropertyOp18
 70
     1
102
RTVSPropertyOp19
 70
     1
102
RTVSPropertyOp20
 70
     1
102
RTVSPropertyOp21
 70
     1
102
RTVSPropertyOp22
 70
     1
102
RTVSPropertyOp23
 70
     1
102
RTVSPropertyOp24
 70
     1
102
RTVSPropertyOp25
 70
     1
102
RTVSPropertyOp26
 70
     1
102
RTVSPropertyOp27
 70
     1
102
RTVSPropertyOp28
 70
     1
102
RTVSPropertyOp29
 70
     1
102
RTVSPropertyOp30
 70
     1
102
RTVSPropertyOp31
 70
     1
102
RTVSPropertyOp32
 70
     1
102
RTVSPropertyOp33
 70
     1
102
RTVSPropertyOp34
 70
     1
102
RTVSPropertyOp35
 70
     1
102
RTVSPropertyOp36
 70
     1
102
RTVSPropertyOp37
 70
     1
102
RTVSPropertyOp38
 70
     1
102
RTVSPropertyOp39
 70
     1
102
RTVSPropertyOp40
 70
     1
102
RTVSPropertyOp41
 70
     1
102
RTVSPropertyOp42
 70
     1
102
RTVSPropertyOp43
 70
     1
102
RTVSPropertyOp44
 70
     1
102
RTVSPropertyOp45
 70
     1
102
RTVSPropertyOp46
 70
     1
102
RTVSPropertyOp47
 70
     1
102
RTVSPropertyOp48
 70
     1
102
RTVSPropertyOp49
 70
     1
102
RTVSPropertyOp50
 70
     1
102
RTVSPropertyOp51
 70
     0
102
RTVSPropertyOp52
 70
     0
102
RTVSPropertyOp53
 70
     1
102
RTVSPropertyOp54
 70
     1
102
RTVSPropertyOp55
 70
     1
102
RTVSPropertyOp56
 70
     1
102
RTVSPropertyOp57
 70
     1
102
RTVSPost2010Prop28
280
     0
102
RTVSPost2010PropOp28
 70
     1
102
RTVSPost2010Prop29
280
     1
102
RTVSPost2010PropOp29
 70
     1
102
RTVSPost2010Prop30
280
     1
102
RTVSPost2010PropOp30
 70
     1
102
RTVSPost2010Prop31
280
     0
102
RTVSPost2010PropOp31
 70
     1
102
RTVSPost2010Prop32
280
     0
102
RTVSPost2010PropOp32
 70
     1
102
RTVSPost2010Prop33
280
     0
102
RTVSPost2010PropOp33
 70
     1
102
RTVSPost2010Prop34
280
     0
102
RTVSPost2010PropOp34
 70
     1
102
RTVSPost2010Prop35
280
     0
102
RTVSPost2010PropOp35
 70
     1
102
RTVSPost2010Prop36
280
     0
102
RTVSPost2010PropOp36
 70
     1
102
RTVSPost2010Prop37
 90
       50
102
RTVSPost2010PropOp37
 70
     1
102
RTVSPost2010Prop38
140
0.0
102
RTVSPost2010PropOp38
 70
     1
102
RTVSPost2010Prop39
140
1.0
102
RTVSPost2010PropOp39
 70
     1
102
RTVSPost2010Prop40
 90
        0
102
RTVSPost2010PropOp40
 70
     1
102
RTVSPost2010Prop41ColorIndex
 90
       18
102
RTVSPost2010Prop41ColorRGB
 90
        0
102
RTVSPost2010PropOp41
 70
     1
102
RTVSPost2010Prop42
 90
       50
102
RTVSPost2010PropOp42
 70
     1
102
RTVSPost2010Prop43
 90
        3
102
RTVSPost2010PropOp43
 70
     1
102
RTVSPost2010Prop44ColorIndex
 90
        5
102
RTVSPost2010Prop44ColorRGB
 90
      255
102
RTVSPost2010PropOp44
 70
     1
102
RTVSPost2010Prop45
280
     0
102
RTVSPost2010PropOp45
 70
     1
102
RTVSPost2010Prop46
 90
       50
102
RTVSPost2010PropOp46
 70
     1
102
RTVSPost2010Prop47
 90
       50
102
RTVSPost2010PropOp47
 70
     1
102
RTVSPost2010Prop48
 90
       50
102
RTVSPost2010PropOp48
 70
     1
102
RTVSPost2010Prop49
280
     0
102
RTVSPost2010PropOp49
 70
     1
102
RTVSPost2010Prop50
 90
       50
102
RTVSPost2010PropOp50
 70
     1
102
RTVSPost2010Prop51ColorIndex
 90
      256
102
RTVSPost2010Prop51ColorRGB
 90
-16777216
102
RTVSPost2010PropOp51
 70
     0
102
RTVSPost2010Prop52
140
1.0
102
RTVSPost2010PropOp52
 70
     0
102
RTVSPost2010Prop53
 90
        2
102
RTVSPost2010PropOp53
 70
     1
102
RTVSPost2010Prop54
  1
strokes_ogs.tif
102
RTVSPost2010PropOp54
 70
     1
102
RTVSPost2010Prop55
280
     0
102
RTVSPost2010PropOp55
 70
     1
102
RTVSPost2010Prop56
140
1.0
102
RTVSPost2010PropOp56
 70
     1
102
RTVSPost2010Prop57
140
1.0
102
RTVSPost2010PropOp57
 70
     1
  0
XRECORD
  5
159
102
{ACAD_REACTORS
330
158
102
}
330
158
100
AcDbXrecord
280
     1
102
RTVSPropertyOp0
 70
     0
102
RTVSPropertyOp1
 70
     0
102
RTVSPropertyOp2
 70
     0
102
RTVSPropertyOp3
 70
     0
102
RTVSPropertyOp4
 70
     0
102
RTVSPropertyOp5
 70
     0
102
RTVSPropertyOp6
 70
     0
102
RTVSPropertyOp7
 70
     0
102
RTVSPropertyOp8
 70
     0
102
RTVSPropertyOp9
 70
     0
102
RTVSPropertyOp10
 70
     0
102
RTVSPropertyOp11
 70
     0
102
RTVSPropertyOp12
 70
     0
102
RTVSPropertyOp13
 70
     0
102
RTVSPropertyOp14
 70
     2
102
RTVSPropertyOp15
 70
     0
102
RTVSPropertyOp16
 70
     0
102
RTVSPropertyOp17
 70
     0
102
RTVSPropertyOp18
 70
     0
102
RTVSPropertyOp19
 70
     0
102
RTVSPropertyOp20
 70
     0
102
RTVSPropertyOp21
 70
     0
102
RTVSPropertyOp22
 70
     0
102
RTVSPropertyOp23
 70
     0
102
RTVSPropertyOp24
 70
     0
102
RTVSPropertyOp25
 70
     0
102
RTVSPropertyOp26
 70
     0
102
RTVSPropertyOp27
 70
     0
102
RTVSPropertyOp28
 70
     0
102
RTVSPropertyOp29
 70
     0
102
RTVSPropertyOp30
 70
     0
102
RTVSPropertyOp31
 70
     0
102
RTVSPropertyOp32
 70
     0
102
RTVSPropertyOp33
 70
     0
102
RTVSPropertyOp34
 70
     0
102
RTVSPropertyOp35
 70
     0
102
RTVSPropertyOp36
 70
     0
102
RTVSPropertyOp37
 70
     0
102
RTVSPropertyOp38
 70
     0
102
RTVSPropertyOp39
 70
     0
102
RTVSPropertyOp40
 70
     0
102
RTVSPropertyOp41
 70
     0
102
RTVSPropertyOp42
 70
     0
102
RTVSPropertyOp43
 70
     0
102
RTVSPropertyOp44
 70
     0
102
RTVSPropertyOp45
 70
     0
102
RTVSPropertyOp46
 70
     0
102
RTVSPropertyOp47
 70
     0
102
RTVSPropertyOp48
 70
     0
102
RTVSPropertyOp49
 70
     0
102
RTVSPropertyOp50
 70
     0
102
RTVSPropertyOp51
 70
     0
102
RTVSPropertyOp52
 70
     0
102
RTVSPropertyOp53
 70
     0
102
RTVSPropertyOp54
 70
     0
102
RTVSPropertyOp55
 70
     0
102
RTVSPropertyOp56
 70
     0
102
RTVSPropertyOp57
 70
     0
102
RTVSPost2010Prop28
280
     0
102
RTVSPost2010PropOp28
 70
     0
102
RTVSPost2010Prop29
280
     1
102
RTVSPost2010PropOp29
 70
     0
102
RTVSPost2010Prop30
280
     1
102
RTVSPost2010PropOp30
 70
     0
102
RTVSPost2010Prop31
280
     0
102
RTVSPost2010PropOp31
 70
     0
102
RTVSPost2010Prop32
280
     0
102
RTVSPost2010PropOp32
 70
     0
102
RTVSPost2010Prop33
280
     0
102
RTVSPost2010PropOp33
 70
     0
102
RTVSPost2010Prop34
280
     0
102
RTVSPost2010PropOp34
 70
     0
102
RTVSPost2010Prop35
280
     0
102
RTVSPost2010PropOp35
 70
     0
102
RTVSPost2010Prop36
280
     0
102
RTVSPost2010PropOp36
 70
     0
102
RTVSPost2010Prop37
 90
       50
102
RTVSPost2010PropOp37
 70
     0
102
RTVSPost2010Prop38
140
0.0
102
RTVSPost2010PropOp38
 70
     0
102
RTVSPost2010Prop39
140
1.0
102
RTVSPost2010PropOp39
 70
     0
102
RTVSPost2010Prop40
 90
        0
102
RTVSPost2010PropOp40
 70
     0
102
RTVSPost2010Prop41ColorIndex
 90
       18
102
RTVSPost2010Prop41ColorRGB
 90
        0
102
RTVSPost2010PropOp41
 70
     0
102
RTVSPost2010Prop42
 90
       50
102
RTVSPost2010PropOp42
 70
     0
102
RTVSPost2010Prop43
 90
        3
102
RTVSPost2010PropOp43
 70
     0
102
RTVSPost2010Prop44ColorIndex
 90
        5
102
RTVSPost2010Prop44ColorRGB
 90
      255
102
RTVSPost2010PropOp44
 70
     0
102
RTVSPost2010Prop45
280
     0
102
RTVSPost2010PropOp45
 70
     0
102
RTVSPost2010Prop46
 90
       50
102
RTVSPost2010PropOp46
 70
     0
102
RTVSPost2010Prop47
 90
       50
102
RTVSPost2010PropOp47
 70
     0
102
RTVSPost2010Prop48
 90
       50
102
RTVSPost2010PropOp48
 70
     0
102
RTVSPost2010Prop49
280
     0
102
RTVSPost2010PropOp49
 70
     0
102
RTVSPost2010Prop50
 90
       50
102
RTVSPost2010PropOp50
 70
     0
102
RTVSPost2010Prop51ColorIndex
 90
      256
102
RTVSPost2010Prop51ColorRGB
 90
-16777216
102
RTVSPost2010PropOp51
 70
     0
102
RTVSPost2010Prop52
140
1.0
102
RTVSPost2010PropOp52
 70
     0
102
RTVSPost2010Prop53
 90
        2
102
RTVSPost2010PropOp53
 70
     0
102
RTVSPost2010Prop54
  1
strokes_ogs.tif
102
RTVSPost2010PropOp54
 70
     0
102
RTVSPost2010Prop55
280
     0
102
RTVSPost2010PropOp55
 70
     0
102
RTVSPost2010Prop56
140
1.0
102
RTVSPost2010PropOp56
 70
     0
102
RTVSPost2010Prop57
140
1.0
102
RTVSPost2010PropOp57
 70
     0
  0
XRECORD
  5
147
102
{ACAD_REACTORS
330
146
102
}
330
146
100
AcDbXrecord
280
     1
102
RTVSPropertyOp0
 70
     1
102
RTVSPropertyOp1
 70
     1
102
RTVSPropertyOp2
 70
     1
102
RTVSPropertyOp3
 70
     1
102
RTVSPropertyOp4
 70
     1
102
RTVSPropertyOp5
 70
     1
102
RTVSPropertyOp6
 70
     1
102
RTVSPropertyOp7
 70
     1
102
RTVSPropertyOp8
 70
     1
102
RTVSPropertyOp9
 70
     1
102
RTVSPropertyOp10
 70
     1
102
RTVSPropertyOp11
 70
     1
102
RTVSPropertyOp12
 70
     1
102
RTVSPropertyOp13
 70
     1
102
RTVSPropertyOp14
 70
     1
102
RTVSPropertyOp15
 70
     1
102
RTVSPropertyOp16
 70
     1
102
RTVSPropertyOp17
 70
     1
102
RTVSPropertyOp18
 70
     1
102
RTVSPropertyOp19
 70
     1
102
RTVSPropertyOp20
 70
     1
102
RTVSPropertyOp21
 70
     1
102
RTVSPropertyOp22
 70
     1
102
RTVSPropertyOp23
 70
     1
102
RTVSPropertyOp24
 70
     1
102
RTVSPropertyOp25
 70
     1
102
RTVSPropertyOp26
 70
     1
102
RTVSPropertyOp27
 70
     1
102
RTVSPropertyOp28
 70
     1
102
RTVSPropertyOp29
 70
     1
102
RTVSPropertyOp30
 70
     1
102
RTVSPropertyOp31
 70
     1
102
RTVSPropertyOp32
 70
     1
102
RTVSPropertyOp33
 70
     1
102
RTVSPropertyOp34
 70
     1
102
RTVSPropertyOp35
 70
     1
102
RTVSPropertyOp36
 70
     1
102
RTVSPropertyOp37
 70
     1
102
RTVSPropertyOp38
 70
     1
102
RTVSPropertyOp39
 70
     1
102
RTVSPropertyOp40
 70
     1
102
RTVSPropertyOp41
 70
     1
102
RTVSPropertyOp42
 70
     1
102
RTVSPropertyOp43
 70
     1
102
RTVSPropertyOp44
 70
     1
102
RTVSPropertyOp45
 70
     1
102
RTVSPropertyOp46
 70
     1
102
RTVSPropertyOp47
 70
     1
102
RTVSPropertyOp48
 70
     1
102
RTVSPropertyOp49
 70
     1
102
RTVSPropertyOp50
 70
     1
102
RTVSPropertyOp51
 70
     0
102
RTVSPropertyOp52
 70
     0
102
RTVSPropertyOp53
 70
     1
102
RTVSPropertyOp54
 70
     1
102
RTVSPropertyOp55
 70
     1
102
RTVSPropertyOp56
 70
     1
102
RTVSPropertyOp57
 70
     1
102
RTVSPost2010Prop28
280
     0
102
RTVSPost2010PropOp28
 70
     1
102
RTVSPost2010Prop29
280
     1
102
RTVSPost2010PropOp29
 70
     1
102
RTVSPost2010Prop30
280
     1
102
RTVSPost2010PropOp30
 70
     1
102
RTVSPost2010Prop31
280
     0
102
RTVSPost2010PropOp31
 70
     1
102
RTVSPost2010Prop32
280
     0
102
RTVSPost2010PropOp32
 70
     1
102
RTVSPost2010Prop33
280
     0
102
RTVSPost2010PropOp33
 70
     1
102
RTVSPost2010Prop34
280
     0
102
RTVSPost2010PropOp34
 70
     1
102
RTVSPost2010Prop35
280
     0
102
RTVSPost2010PropOp35
 70
     1
102
RTVSPost2010Prop36
280
     0
102
RTVSPost2010PropOp36
 70
     1
102
RTVSPost2010Prop37
 90
       50
102
RTVSPost2010PropOp37
 70
     1
102
RTVSPost2010Prop38
140
0.0
102
RTVSPost2010PropOp38
 70
     1
102
RTVSPost2010Prop39
140
1.0
102
RTVSPost2010PropOp39
 70
     1
102
RTVSPost2010Prop40
 90
        0
102
RTVSPost2010PropOp40
 70
     1
102
RTVSPost2010Prop41ColorIndex
 90
       18
102
RTVSPost2010Prop41ColorRGB
 90
        0
102
RTVSPost2010PropOp41
 70
     1
102
RTVSPost2010Prop42
 90
       50
102
RTVSPost2010PropOp42
 70
     1
102
RTVSPost2010Prop43
 90
        3
102
RTVSPost2010PropOp43
 70
     1
102
RTVSPost2010Prop44ColorIndex
 90
        5
102
RTVSPost2010Prop44ColorRGB
 90
      255
102
RTVSPost2010PropOp44
 70
     1
102
RTVSPost2010Prop45
280
     0
102
RTVSPost2010PropOp45
 70
     1
102
RTVSPost2010Prop46
 90
       50
102
RTVSPost2010PropOp46
 70
     1
102
RTVSPost2010Prop47
 90
       50
102
RTVSPost2010PropOp47
 70
     1
102
RTVSPost2010Prop48
 90
       50
102
RTVSPost2010PropOp48
 70
     1
102
RTVSPost2010Prop49
280
     0
102
RTVSPost2010PropOp49
 70
     1
102
RTVSPost2010Prop50
 90
       50
102
RTVSPost2010PropOp50
 70
     1
102
RTVSPost2010Prop51ColorIndex
 90
      256
102
RTVSPost2010Prop51ColorRGB
 90
-16777216
102
RTVSPost2010PropOp51
 70
     0
102
RTVSPost2010Prop52
140
1.0
102
RTVSPost2010PropOp52
 70
     0
102
RTVSPost2010Prop53
 90
        2
102
RTVSPost2010PropOp53
 70
     1
102
RTVSPost2010Prop54
  1
strokes_ogs.tif
102
RTVSPost2010PropOp54
 70
     1
102
RTVSPost2010Prop55
280
     0
102
RTVSPost2010PropOp55
 70
     1
102
RTVSPost2010Prop56
140
1.0
102
RTVSPost2010PropOp56
 70
     1
102
RTVSPost2010Prop57
140
1.0
102
RTVSPost2010PropOp57
 70
     1
  0
XRECORD
  5
165
102
{ACAD_REACTORS
330
164
102
}
330
164
100
AcDbXrecord
280
     1
102
RTVSPropertyOp0
 70
     1
102
RTVSPropertyOp1
 70
     1
102
RTVSPropertyOp2
 70
     1
102
RTVSPropertyOp3
 70
     1
102
RTVSPropertyOp4
 70
     1
102
RTVSPropertyOp5
 70
     1
102
RTVSPropertyOp6
 70
     1
102
RTVSPropertyOp7
 70
     1
102
RTVSPropertyOp8
 70
     1
102
RTVSPropertyOp9
 70
     1
102
RTVSPropertyOp10
 70
     1
102
RTVSPropertyOp11
 70
     1
102
RTVSPropertyOp12
 70
     1
102
RTVSPropertyOp13
 70
     1
102
RTVSPropertyOp14
 70
     1
102
RTVSPropertyOp15
 70
     1
102
RTVSPropertyOp16
 70
     1
102
RTVSPropertyOp17
 70
     1
102
RTVSPropertyOp18
 70
     1
102
RTVSPropertyOp19
 70
     1
102
RTVSPropertyOp20
 70
     1
102
RTVSPropertyOp21
 70
     1
102
RTVSPropertyOp22
 70
     1
102
RTVSPropertyOp23
 70
     1
102
RTVSPropertyOp24
 70
     1
102
RTVSPropertyOp25
 70
     1
102
RTVSPropertyOp26
 70
     1
102
RTVSPropertyOp27
 70
     1
102
RTVSPropertyOp28
 70
     1
102
RTVSPropertyOp29
 70
     1
102
RTVSPropertyOp30
 70
     1
102
RTVSPropertyOp31
 70
     1
102
RTVSPropertyOp32
 70
     1
102
RTVSPropertyOp33
 70
     1
102
RTVSPropertyOp34
 70
     1
102
RTVSPropertyOp35
 70
     1
102
RTVSPropertyOp36
 70
     1
102
RTVSPropertyOp37
 70
     1
102
RTVSPropertyOp38
 70
     1
102
RTVSPropertyOp39
 70
     1
102
RTVSPropertyOp40
 70
     1
102
RTVSPropertyOp41
 70
     1
102
RTVSPropertyOp42
 70
     1
102
RTVSPropertyOp43
 70
     1
102
RTVSPropertyOp44
 70
     1
102
RTVSPropertyOp45
 70
     1
102
RTVSPropertyOp46
 70
     1
102
RTVSPropertyOp47
 70
     1
102
RTVSPropertyOp48
 70
     1
102
RTVSPropertyOp49
 70
     1
102
RTVSPropertyOp50
 70
     1
102
RTVSPropertyOp51
 70
     0
102
RTVSPropertyOp52
 70
     0
102
RTVSPropertyOp53
 70
     1
102
RTVSPropertyOp54
 70
     1
102
RTVSPropertyOp55
 70
     1
102
RTVSPropertyOp56
 70
     1
102
RTVSPropertyOp57
 70
     1
102
RTVSPost2010Prop28
280
     0
102
RTVSPost2010PropOp28
 70
     1
102
RTVSPost2010Prop29
280
     1
102
RTVSPost2010PropOp29
 70
     1
102
RTVSPost2010Prop30
280
     1
102
RTVSPost2010PropOp30
 70
     1
102
RTVSPost2010Prop31
280
     0
102
RTVSPost2010PropOp31
 70
     1
102
RTVSPost2010Prop32
280
     0
102
RTVSPost2010PropOp32
 70
     1
102
RTVSPost2010Prop33
280
     0
102
RTVSPost2010PropOp33
 70
     1
102
RTVSPost2010Prop34
280
     0
102
RTVSPost2010PropOp34
 70
     1
102
RTVSPost2010Prop35
280
     0
102
RTVSPost2010PropOp35
 70
     1
102
RTVSPost2010Prop36
280
     0
102
RTVSPost2010PropOp36
 70
     1
102
RTVSPost2010Prop37
 90
       50
102
RTVSPost2010PropOp37
 70
     1
102
RTVSPost2010Prop38
140
0.0
102
RTVSPost2010PropOp38
 70
     1
102
RTVSPost2010Prop39
140
1.0
102
RTVSPost2010PropOp39
 70
     1
102
RTVSPost2010Prop40
 90
        0
102
RTVSPost2010PropOp40
 70
     1
102
RTVSPost2010Prop41ColorIndex
 90
       18
102
RTVSPost2010Prop41ColorRGB
 90
        0
102
RTVSPost2010PropOp41
 70
     1
102
RTVSPost2010Prop42
 90
       50
102
RTVSPost2010PropOp42
 70
     1
102
RTVSPost2010Prop43
 90
        3
102
RTVSPost2010PropOp43
 70
     1
102
RTVSPost2010Prop44ColorIndex
 90
        5
102
RTVSPost2010Prop44ColorRGB
 90
      255
102
RTVSPost2010PropOp44
 70
     1
102
RTVSPost2010Prop45
280
     0
102
RTVSPost2010PropOp45
 70
     1
102
RTVSPost2010Prop46
 90
       50
102
RTVSPost2010PropOp46
 70
     1
102
RTVSPost2010Prop47
 90
       50
102
RTVSPost2010PropOp47
 70
     1
102
RTVSPost2010Prop48
 90
       50
102
RTVSPost2010PropOp48
 70
     1
102
RTVSPost2010Prop49
280
     0
102
RTVSPost2010PropOp49
 70
     1
102
RTVSPost2010Prop50
 90
       50
102
RTVSPost2010PropOp50
 70
     1
102
RTVSPost2010Prop51ColorIndex
 90
      256
102
RTVSPost2010Prop51ColorRGB
 90
-16777216
102
RTVSPost2010PropOp51
 70
     0
102
RTVSPost2010Prop52
140
1.0
102
RTVSPost2010PropOp52
 70
     0
102
RTVSPost2010Prop53
 90
        2
102
RTVSPost2010PropOp53
 70
     1
102
RTVSPost2010Prop54
  1
strokes_ogs.tif
102
RTVSPost2010PropOp54
 70
     1
102
RTVSPost2010Prop55
280
     0
102
RTVSPost2010PropOp55
 70
     1
102
RTVSPost2010Prop56
140
1.0
102
RTVSPost2010PropOp56
 70
     1
102
RTVSPost2010Prop57
140
1.0
102
RTVSPost2010PropOp57
 70
     1
  0
XRECORD
  5
163
102
{ACAD_REACTORS
330
162
102
}
330
162
100
AcDbXrecord
280
     1
102
RTVSPropertyOp0
 70
     1
102
RTVSPropertyOp1
 70
     1
102
RTVSPropertyOp2
 70
     1
102
RTVSPropertyOp3
 70
     1
102
RTVSPropertyOp4
 70
     1
102
RTVSPropertyOp5
 70
     1
102
RTVSPropertyOp6
 70
     1
102
RTVSPropertyOp7
 70
     1
102
RTVSPropertyOp8
 70
     1
102
RTVSPropertyOp9
 70
     1
102
RTVSPropertyOp10
 70
     1
102
RTVSPropertyOp11
 70
     1
102
RTVSPropertyOp12
 70
     1
102
RTVSPropertyOp13
 70
     1
102
RTVSPropertyOp14
 70
     1
102
RTVSPropertyOp15
 70
     1
102
RTVSPropertyOp16
 70
     1
102
RTVSPropertyOp17
 70
     1
102
RTVSPropertyOp18
 70
     1
102
RTVSPropertyOp19
 70
     1
102
RTVSPropertyOp20
 70
     1
102
RTVSPropertyOp21
 70
     1
102
RTVSPropertyOp22
 70
     1
102
RTVSPropertyOp23
 70
     1
102
RTVSPropertyOp24
 70
     1
102
RTVSPropertyOp25
 70
     1
102
RTVSPropertyOp26
 70
     1
102
RTVSPropertyOp27
 70
     1
102
RTVSPropertyOp28
 70
     1
102
RTVSPropertyOp29
 70
     1
102
RTVSPropertyOp30
 70
     1
102
RTVSPropertyOp31
 70
     1
102
RTVSPropertyOp32
 70
     1
102
RTVSPropertyOp33
 70
     1
102
RTVSPropertyOp34
 70
     1
102
RTVSPropertyOp35
 70
     1
102
RTVSPropertyOp36
 70
     1
102
RTVSPropertyOp37
 70
     1
102
RTVSPropertyOp38
 70
     1
102
RTVSPropertyOp39
 70
     1
102
RTVSPropertyOp40
 70
     1
102
RTVSPropertyOp41
 70
     1
102
RTVSPropertyOp42
 70
     1
102
RTVSPropertyOp43
 70
     1
102
RTVSPropertyOp44
 70
     1
102
RTVSPropertyOp45
 70
     1
102
RTVSPropertyOp46
 70
     1
102
RTVSPropertyOp47
 70
     1
102
RTVSPropertyOp48
 70
     1
102
RTVSPropertyOp49
 70
     1
102
RTVSPropertyOp50
 70
     1
102
RTVSPropertyOp51
 70
     0
102
RTVSPropertyOp52
 70
     0
102
RTVSPropertyOp53
 70
     1
102
RTVSPropertyOp54
 70
     1
102
RTVSPropertyOp55
 70
     1
102
RTVSPropertyOp56
 70
     1
102
RTVSPropertyOp57
 70
     1
102
RTVSPost2010Prop28
280
     0
102
RTVSPost2010PropOp28
 70
     1
102
RTVSPost2010Prop29
280
     1
102
RTVSPost2010PropOp29
 70
     1
102
RTVSPost2010Prop30
280
     1
102
RTVSPost2010PropOp30
 70
     1
102
RTVSPost2010Prop31
280
     0
102
RTVSPost2010PropOp31
 70
     1
102
RTVSPost2010Prop32
280
     0
102
RTVSPost2010PropOp32
 70
     1
102
RTVSPost2010Prop33
280
     0
102
RTVSPost2010PropOp33
 70
     1
102
RTVSPost2010Prop34
280
     0
102
RTVSPost2010PropOp34
 70
     1
102
RTVSPost2010Prop35
280
     0
102
RTVSPost2010PropOp35
 70
     1
102
RTVSPost2010Prop36
280
     0
102
RTVSPost2010PropOp36
 70
     1
102
RTVSPost2010Prop37
 90
       50
102
RTVSPost2010PropOp37
 70
     1
102
RTVSPost2010Prop38
140
0.0
102
RTVSPost2010PropOp38
 70
     1
102
RTVSPost2010Prop39
140
1.0
102
RTVSPost2010PropOp39
 70
     1
102
RTVSPost2010Prop40
 90
        0
102
RTVSPost2010PropOp40
 70
     1
102
RTVSPost2010Prop41ColorIndex
 90
       18
102
RTVSPost2010Prop41ColorRGB
 90
        0
102
RTVSPost2010PropOp41
 70
     1
102
RTVSPost2010Prop42
 90
       50
102
RTVSPost2010PropOp42
 70
     1
102
RTVSPost2010Prop43
 90
        3
102
RTVSPost2010PropOp43
 70
     1
102
RTVSPost2010Prop44ColorIndex
 90
        5
102
RTVSPost2010Prop44ColorRGB
 90
      255
102
RTVSPost2010PropOp44
 70
     1
102
RTVSPost2010Prop45
280
     0
102
RTVSPost2010PropOp45
 70
     1
102
RTVSPost2010Prop46
 90
       50
102
RTVSPost2010PropOp46
 70
     1
102
RTVSPost2010Prop47
 90
       50
102
RTVSPost2010PropOp47
 70
     1
102
RTVSPost2010Prop48
 90
       50
102
RTVSPost2010PropOp48
 70
     1
102
RTVSPost2010Prop49
280
     0
102
RTVSPost2010PropOp49
 70
     1
102
RTVSPost2010Prop50
 90
       50
102
RTVSPost2010PropOp50
 70
     1
102
RTVSPost2010Prop51ColorIndex
 90
      256
102
RTVSPost2010Prop51ColorRGB
 90
-16777216
102
RTVSPost2010PropOp51
 70
     0
102
RTVSPost2010Prop52
140
1.0
102
RTVSPost2010PropOp52
 70
     0
102
RTVSPost2010Prop53
 90
        2
102
RTVSPost2010PropOp53
 70
     1
102
RTVSPost2010Prop54
  1
strokes_ogs.tif
102
RTVSPost2010PropOp54
 70
     1
102
RTVSPost2010Prop55
280
     0
102
RTVSPost2010PropOp55
 70
     1
102
RTVSPost2010Prop56
140
1.0
102
RTVSPost2010PropOp56
 70
     1
102
RTVSPost2010Prop57
140
1.0
102
RTVSPost2010PropOp57
 70
     1
  0
XRECORD
  5
15D
102
{ACAD_REACTORS
330
15C
102
}
330
15C
100
AcDbXrecord
280
     1
102
RTVSPropertyOp0
 70
     1
102
RTVSPropertyOp1
 70
     1
102
RTVSPropertyOp2
 70
     1
102
RTVSPropertyOp3
 70
     1
102
RTVSPropertyOp4
 70
     1
102
RTVSPropertyOp5
 70
     1
102
RTVSPropertyOp6
 70
     1
102
RTVSPropertyOp7
 70
     1
102
RTVSPropertyOp8
 70
     1
102
RTVSPropertyOp9
 70
     1
102
RTVSPropertyOp10
 70
     1
102
RTVSPropertyOp11
 70
     1
102
RTVSPropertyOp12
 70
     1
102
RTVSPropertyOp13
 70
     1
102
RTVSPropertyOp14
 70
     1
102
RTVSPropertyOp15
 70
     1
102
RTVSPropertyOp16
 70
     1
102
RTVSPropertyOp17
 70
     1
102
RTVSPropertyOp18
 70
     1
102
RTVSPropertyOp19
 70
     1
102
RTVSPropertyOp20
 70
     1
102
RTVSPropertyOp21
 70
     1
102
RTVSPropertyOp22
 70
     1
102
RTVSPropertyOp23
 70
     1
102
RTVSPropertyOp24
 70
     1
102
RTVSPropertyOp25
 70
     1
102
RTVSPropertyOp26
 70
     1
102
RTVSPropertyOp27
 70
     1
102
RTVSPropertyOp28
 70
     1
102
RTVSPropertyOp29
 70
     1
102
RTVSPropertyOp30
 70
     1
102
RTVSPropertyOp31
 70
     1
102
RTVSPropertyOp32
 70
     1
102
RTVSPropertyOp33
 70
     1
102
RTVSPropertyOp34
 70
     1
102
RTVSPropertyOp35
 70
     1
102
RTVSPropertyOp36
 70
     1
102
RTVSPropertyOp37
 70
     1
102
RTVSPropertyOp38
 70
     1
102
RTVSPropertyOp39
 70
     1
102
RTVSPropertyOp40
 70
     1
102
RTVSPropertyOp41
 70
     1
102
RTVSPropertyOp42
 70
     1
102
RTVSPropertyOp43
 70
     1
102
RTVSPropertyOp44
 70
     1
102
RTVSPropertyOp45
 70
     1
102
RTVSPropertyOp46
 70
     1
102
RTVSPropertyOp47
 70
     1
102
RTVSPropertyOp48
 70
     1
102
RTVSPropertyOp49
 70
     1
102
RTVSPropertyOp50
 70
     1
102
RTVSPropertyOp51
 70
     0
102
RTVSPropertyOp52
 70
     0
102
RTVSPropertyOp53
 70
     1
102
RTVSPropertyOp54
 70
     1
102
RTVSPropertyOp55
 70
     1
102
RTVSPropertyOp56
 70
     1
102
RTVSPropertyOp57
 70
     1
102
RTVSPost2010Prop28
280
     0
102
RTVSPost2010PropOp28
 70
     1
102
RTVSPost2010Prop29
280
     1
102
RTVSPost2010PropOp29
 70
     1
102
RTVSPost2010Prop30
280
     1
102
RTVSPost2010PropOp30
 70
     1
102
RTVSPost2010Prop31
280
     0
102
RTVSPost2010PropOp31
 70
     1
102
RTVSPost2010Prop32
280
     0
102
RTVSPost2010PropOp32
 70
     1
102
RTVSPost2010Prop33
280
     0
102
RTVSPost2010PropOp33
 70
     1
102
RTVSPost2010Prop34
280
     0
102
RTVSPost2010PropOp34
 70
     1
102
RTVSPost2010Prop35
280
     0
102
RTVSPost2010PropOp35
 70
     1
102
RTVSPost2010Prop36
280
     0
102
RTVSPost2010PropOp36
 70
     1
102
RTVSPost2010Prop37
 90
       50
102
RTVSPost2010PropOp37
 70
     1
102
RTVSPost2010Prop38
140
0.0
102
RTVSPost2010PropOp38
 70
     1
102
RTVSPost2010Prop39
140
1.0
102
RTVSPost2010PropOp39
 70
     1
102
RTVSPost2010Prop40
 90
        0
102
RTVSPost2010PropOp40
 70
     1
102
RTVSPost2010Prop41ColorIndex
 90
       18
102
RTVSPost2010Prop41ColorRGB
 90
        0
102
RTVSPost2010PropOp41
 70
     1
102
RTVSPost2010Prop42
 90
       50
102
RTVSPost2010PropOp42
 70
     1
102
RTVSPost2010Prop43
 90
        3
102
RTVSPost2010PropOp43
 70
     1
102
RTVSPost2010Prop44ColorIndex
 90
        5
102
RTVSPost2010Prop44ColorRGB
 90
      255
102
RTVSPost2010PropOp44
 70
     1
102
RTVSPost2010Prop45
280
     0
102
RTVSPost2010PropOp45
 70
     1
102
RTVSPost2010Prop46
 90
       50
102
RTVSPost2010PropOp46
 70
     1
102
RTVSPost2010Prop47
 90
       50
102
RTVSPost2010PropOp47
 70
     1
102
RTVSPost2010Prop48
 90
       50
102
RTVSPost2010PropOp48
 70
     1
102
RTVSPost2010Prop49
280
     0
102
RTVSPost2010PropOp49
 70
     1
102
RTVSPost2010Prop50
 90
       50
102
RTVSPost2010PropOp50
 70
     1
102
RTVSPost2010Prop51ColorIndex
 90
      256
102
RTVSPost2010Prop51ColorRGB
 90
-16777216
102
RTVSPost2010PropOp51
 70
     0
102
RTVSPost2010Prop52
140
1.0
102
RTVSPost2010PropOp52
 70
     0
102
RTVSPost2010Prop53
 90
        2
102
RTVSPost2010PropOp53
 70
     1
102
RTVSPost2010Prop54
  1
strokes_ogs.tif
102
RTVSPost2010PropOp54
 70
     1
102
RTVSPost2010Prop55
280
     0
102
RTVSPost2010PropOp55
 70
     1
102
RTVSPost2010Prop56
140
1.0
102
RTVSPost2010PropOp56
 70
     1
102
RTVSPost2010Prop57
140
1.0
102
RTVSPost2010PropOp57
 70
     1
  0
XRECORD
  5
15F
102
{ACAD_REACTORS
330
15E
102
}
330
15E
100
AcDbXrecord
280
     1
102
RTVSPropertyOp0
 70
     1
102
RTVSPropertyOp1
 70
     1
102
RTVSPropertyOp2
 70
     1
102
RTVSPropertyOp3
 70
     1
102
RTVSPropertyOp4
 70
     1
102
RTVSPropertyOp5
 70
     1
102
RTVSPropertyOp6
 70
     1
102
RTVSPropertyOp7
 70
     1
102
RTVSPropertyOp8
 70
     1
102
RTVSPropertyOp9
 70
     1
102
RTVSPropertyOp10
 70
     1
102
RTVSPropertyOp11
 70
     1
102
RTVSPropertyOp12
 70
     1
102
RTVSPropertyOp13
 70
     1
102
RTVSPropertyOp14
 70
     1
102
RTVSPropertyOp15
 70
     1
102
RTVSPropertyOp16
 70
     1
102
RTVSPropertyOp17
 70
     1
102
RTVSPropertyOp18
 70
     1
102
RTVSPropertyOp19
 70
     1
102
RTVSPropertyOp20
 70
     1
102
RTVSPropertyOp21
 70
     1
102
RTVSPropertyOp22
 70
     1
102
RTVSPropertyOp23
 70
     1
102
RTVSPropertyOp24
 70
     1
102
RTVSPropertyOp25
 70
     1
102
RTVSPropertyOp26
 70
     1
102
RTVSPropertyOp27
 70
     1
102
RTVSPropertyOp28
 70
     1
102
RTVSPropertyOp29
 70
     1
102
RTVSPropertyOp30
 70
     1
102
RTVSPropertyOp31
 70
     1
102
RTVSPropertyOp32
 70
     1
102
RTVSPropertyOp33
 70
     1
102
RTVSPropertyOp34
 70
     1
102
RTVSPropertyOp35
 70
     1
102
RTVSPropertyOp36
 70
     1
102
RTVSPropertyOp37
 70
     1
102
RTVSPropertyOp38
 70
     1
102
RTVSPropertyOp39
 70
     1
102
RTVSPropertyOp40
 70
     1
102
RTVSPropertyOp41
 70
     1
102
RTVSPropertyOp42
 70
     1
102
RTVSPropertyOp43
 70
     1
102
RTVSPropertyOp44
 70
     1
102
RTVSPropertyOp45
 70
     1
102
RTVSPropertyOp46
 70
     1
102
RTVSPropertyOp47
 70
     1
102
RTVSPropertyOp48
 70
     1
102
RTVSPropertyOp49
 70
     1
102
RTVSPropertyOp50
 70
     1
102
RTVSPropertyOp51
 70
     0
102
RTVSPropertyOp52
 70
     0
102
RTVSPropertyOp53
 70
     1
102
RTVSPropertyOp54
 70
     1
102
RTVSPropertyOp55
 70
     1
102
RTVSPropertyOp56
 70
     1
102
RTVSPropertyOp57
 70
     1
102
RTVSPost2010Prop28
280
     0
102
RTVSPost2010PropOp28
 70
     1
102
RTVSPost2010Prop29
280
     1
102
RTVSPost2010PropOp29
 70
     1
102
RTVSPost2010Prop30
280
     1
102
RTVSPost2010PropOp30
 70
     1
102
RTVSPost2010Prop31
280
     0
102
RTVSPost2010PropOp31
 70
     1
102
RTVSPost2010Prop32
280
     0
102
RTVSPost2010PropOp32
 70
     1
102
RTVSPost2010Prop33
280
     0
102
RTVSPost2010PropOp33
 70
     1
102
RTVSPost2010Prop34
280
     0
102
RTVSPost2010PropOp34
 70
     1
102
RTVSPost2010Prop35
280
     0
102
RTVSPost2010PropOp35
 70
     1
102
RTVSPost2010Prop36
280
     0
102
RTVSPost2010PropOp36
 70
     1
102
RTVSPost2010Prop37
 90
       50
102
RTVSPost2010PropOp37
 70
     1
102
RTVSPost2010Prop38
140
0.0
102
RTVSPost2010PropOp38
 70
     1
102
RTVSPost2010Prop39
140
1.0
102
RTVSPost2010PropOp39
 70
     1
102
RTVSPost2010Prop40
 90
        0
102
RTVSPost2010PropOp40
 70
     1
102
RTVSPost2010Prop41ColorIndex
 90
       18
102
RTVSPost2010Prop41ColorRGB
 90
        0
102
RTVSPost2010PropOp41
 70
     1
102
RTVSPost2010Prop42
 90
       50
102
RTVSPost2010PropOp42
 70
     1
102
RTVSPost2010Prop43
 90
        3
102
RTVSPost2010PropOp43
 70
     1
102
RTVSPost2010Prop44ColorIndex
 90
        5
102
RTVSPost2010Prop44ColorRGB
 90
      255
102
RTVSPost2010PropOp44
 70
     1
102
RTVSPost2010Prop45
280
     0
102
RTVSPost2010PropOp45
 70
     1
102
RTVSPost2010Prop46
 90
       50
102
RTVSPost2010PropOp46
 70
     1
102
RTVSPost2010Prop47
 90
       50
102
RTVSPost2010PropOp47
 70
     1
102
RTVSPost2010Prop48
 90
       50
102
RTVSPost2010PropOp48
 70
     1
102
RTVSPost2010Prop49
280
     0
102
RTVSPost2010PropOp49
 70
     1
102
RTVSPost2010Prop50
 90
       50
102
RTVSPost2010PropOp50
 70
     1
102
RTVSPost2010Prop51ColorIndex
 90
      256
102
RTVSPost2010Prop51ColorRGB
 90
-16777216
102
RTVSPost2010PropOp51
 70
     0
102
RTVSPost2010Prop52
140
1.0
102
RTVSPost2010PropOp52
 70
     0
102
RTVSPost2010Prop53
 90
        2
102
RTVSPost2010PropOp53
 70
     1
102
RTVSPost2010Prop54
  1
strokes_ogs.tif
102
RTVSPost2010PropOp54
 70
     1
102
RTVSPost2010Prop55
280
     0
102
RTVSPost2010PropOp55
 70
     1
102
RTVSPost2010Prop56
140
1.0
102
RTVSPost2010PropOp56
 70
     1
102
RTVSPost2010Prop57
140
1.0
102
RTVSPost2010PropOp57
 70
     1
  0
XRECORD
  5
14F
102
{ACAD_REACTORS
330
14E
102
}
330
14E
100
AcDbXrecord
280
     1
102
RTVSPropertyOp0
 70
     1
102
RTVSPropertyOp1
 70
     1
102
RTVSPropertyOp2
 70
     1
102
RTVSPropertyOp3
 70
     1
102
RTVSPropertyOp4
 70
     1
102
RTVSPropertyOp5
 70
     1
102
RTVSPropertyOp6
 70
     1
102
RTVSPropertyOp7
 70
     1
102
RTVSPropertyOp8
 70
     1
102
RTVSPropertyOp9
 70
     1
102
RTVSPropertyOp10
 70
     1
102
RTVSPropertyOp11
 70
     1
102
RTVSPropertyOp12
 70
     1
102
RTVSPropertyOp13
 70
     1
102
RTVSPropertyOp14
 70
     1
102
RTVSPropertyOp15
 70
     1
102
RTVSPropertyOp16
 70
     1
102
RTVSPropertyOp17
 70
     1
102
RTVSPropertyOp18
 70
     1
102
RTVSPropertyOp19
 70
     1
102
RTVSPropertyOp20
 70
     1
102
RTVSPropertyOp21
 70
     1
102
RTVSPropertyOp22
 70
     1
102
RTVSPropertyOp23
 70
     1
102
RTVSPropertyOp24
 70
     1
102
RTVSPropertyOp25
 70
     1
102
RTVSPropertyOp26
 70
     1
102
RTVSPropertyOp27
 70
     1
102
RTVSPropertyOp28
 70
     1
102
RTVSPropertyOp29
 70
     1
102
RTVSPropertyOp30
 70
     1
102
RTVSPropertyOp31
 70
     1
102
RTVSPropertyOp32
 70
     1
102
RTVSPropertyOp33
 70
     1
102
RTVSPropertyOp34
 70
     1
102
RTVSPropertyOp35
 70
     1
102
RTVSPropertyOp36
 70
     1
102
RTVSPropertyOp37
 70
     1
102
RTVSPropertyOp38
 70
     1
102
RTVSPropertyOp39
 70
     1
102
RTVSPropertyOp40
 70
     1
102
RTVSPropertyOp41
 70
     1
102
RTVSPropertyOp42
 70
     1
102
RTVSPropertyOp43
 70
     1
102
RTVSPropertyOp44
 70
     1
102
RTVSPropertyOp45
 70
     1
102
RTVSPropertyOp46
 70
     1
102
RTVSPropertyOp47
 70
     1
102
RTVSPropertyOp48
 70
     1
102
RTVSPropertyOp49
 70
     1
102
RTVSPropertyOp50
 70
     1
102
RTVSPropertyOp51
 70
     0
102
RTVSPropertyOp52
 70
     0
102
RTVSPropertyOp53
 70
     1
102
RTVSPropertyOp54
 70
     1
102
RTVSPropertyOp55
 70
     1
102
RTVSPropertyOp56
 70
     1
102
RTVSPropertyOp57
 70
     1
102
RTVSPost2010Prop28
280
     0
102
RTVSPost2010PropOp28
 70
     1
102
RTVSPost2010Prop29
280
     1
102
RTVSPost2010PropOp29
 70
     1
102
RTVSPost2010Prop30
280
     1
102
RTVSPost2010PropOp30
 70
     1
102
RTVSPost2010Prop31
280
     0
102
RTVSPost2010PropOp31
 70
     1
102
RTVSPost2010Prop32
280
     0
102
RTVSPost2010PropOp32
 70
     1
102
RTVSPost2010Prop33
280
     0
102
RTVSPost2010PropOp33
 70
     1
102
RTVSPost2010Prop34
280
     0
102
RTVSPost2010PropOp34
 70
     1
102
RTVSPost2010Prop35
280
     0
102
RTVSPost2010PropOp35
 70
     1
102
RTVSPost2010Prop36
280
     0
102
RTVSPost2010PropOp36
 70
     1
102
RTVSPost2010Prop37
 90
       50
102
RTVSPost2010PropOp37
 70
     1
102
RTVSPost2010Prop38
140
0.0
102
RTVSPost2010PropOp38
 70
     1
102
RTVSPost2010Prop39
140
1.0
102
RTVSPost2010PropOp39
 70
     1
102
RTVSPost2010Prop40
 90
        0
102
RTVSPost2010PropOp40
 70
     1
102
RTVSPost2010Prop41ColorIndex
 90
       18
102
RTVSPost2010Prop41ColorRGB
 90
        0
102
RTVSPost2010PropOp41
 70
     1
102
RTVSPost2010Prop42
 90
       50
102
RTVSPost2010PropOp42
 70
     1
102
RTVSPost2010Prop43
 90
        3
102
RTVSPost2010PropOp43
 70
     1
102
RTVSPost2010Prop44ColorIndex
 90
        5
102
RTVSPost2010Prop44ColorRGB
 90
      255
102
RTVSPost2010PropOp44
 70
     1
102
RTVSPost2010Prop45
280
     0
102
RTVSPost2010PropOp45
 70
     1
102
RTVSPost2010Prop46
 90
       50
102
RTVSPost2010PropOp46
 70
     1
102
RTVSPost2010Prop47
 90
       50
102
RTVSPost2010PropOp47
 70
     1
102
RTVSPost2010Prop48
 90
       50
102
RTVSPost2010PropOp48
 70
     1
102
RTVSPost2010Prop49
280
     0
102
RTVSPost2010PropOp49
 70
     1
102
RTVSPost2010Prop50
 90
       50
102
RTVSPost2010PropOp50
 70
     1
102
RTVSPost2010Prop51ColorIndex
 90
      256
102
RTVSPost2010Prop51ColorRGB
 90
-16777216
102
RTVSPost2010PropOp51
 70
     0
102
RTVSPost2010Prop52
140
1.0
102
RTVSPost2010PropOp52
 70
     0
102
RTVSPost2010Prop53
 90
        2
102
RTVSPost2010PropOp53
 70
     1
102
RTVSPost2010Prop54
  1
strokes_ogs.tif
102
RTVSPost2010PropOp54
 70
     1
102
RTVSPost2010Prop55
280
     0
102
RTVSPost2010PropOp55
 70
     1
102
RTVSPost2010Prop56
140
1.0
102
RTVSPost2010PropOp56
 70
     1
102
RTVSPost2010Prop57
140
1.0
102
RTVSPost2010PropOp57
 70
     1
  0
XRECORD
  5
141
102
{ACAD_REACTORS
330
140
102
}
330
140
100
AcDbXrecord
280
     1
102
RTVSPropertyOp0
 70
     1
102
RTVSPropertyOp1
 70
     1
102
RTVSPropertyOp2
 70
     1
102
RTVSPropertyOp3
 70
     1
102
RTVSPropertyOp4
 70
     1
102
RTVSPropertyOp5
 70
     1
102
RTVSPropertyOp6
 70
     1
102
RTVSPropertyOp7
 70
     1
102
RTVSPropertyOp8
 70
     1
102
RTVSPropertyOp9
 70
     1
102
RTVSPropertyOp10
 70
     1
102
RTVSPropertyOp11
 70
     1
102
RTVSPropertyOp12
 70
     1
102
RTVSPropertyOp13
 70
     1
102
RTVSPropertyOp14
 70
     1
102
RTVSPropertyOp15
 70
     1
102
RTVSPropertyOp16
 70
     1
102
RTVSPropertyOp17
 70
     1
102
RTVSPropertyOp18
 70
     1
102
RTVSPropertyOp19
 70
     1
102
RTVSPropertyOp20
 70
     1
102
RTVSPropertyOp21
 70
     1
102
RTVSPropertyOp22
 70
     1
102
RTVSPropertyOp23
 70
     1
102
RTVSPropertyOp24
 70
     1
102
RTVSPropertyOp25
 70
     1
102
RTVSPropertyOp26
 70
     1
102
RTVSPropertyOp27
 70
     1
102
RTVSPropertyOp28
 70
     1
102
RTVSPropertyOp29
 70
     1
102
RTVSPropertyOp30
 70
     1
102
RTVSPropertyOp31
 70
     1
102
RTVSPropertyOp32
 70
     1
102
RTVSPropertyOp33
 70
     1
102
RTVSPropertyOp34
 70
     1
102
RTVSPropertyOp35
 70
     1
102
RTVSPropertyOp36
 70
     1
102
RTVSPropertyOp37
 70
     1
102
RTVSPropertyOp38
 70
     1
102
RTVSPropertyOp39
 70
     1
102
RTVSPropertyOp40
 70
     1
102
RTVSPropertyOp41
 70
     1
102
RTVSPropertyOp42
 70
     1
102
RTVSPropertyOp43
 70
     1
102
RTVSPropertyOp44
 70
     1
102
RTVSPropertyOp45
 70
     1
102
RTVSPropertyOp46
 70
     1
102
RTVSPropertyOp47
 70
     1
102
RTVSPropertyOp48
 70
     1
102
RTVSPropertyOp49
 70
     1
102
RTVSPropertyOp50
 70
     1
102
RTVSPropertyOp51
 70
     0
102
RTVSPropertyOp52
 70
     0
102
RTVSPropertyOp53
 70
     1
102
RTVSPropertyOp54
 70
     1
102
RTVSPropertyOp55
 70
     1
102
RTVSPropertyOp56
 70
     1
102
RTVSPropertyOp57
 70
     1
102
RTVSPost2010Prop28
280
     0
102
RTVSPost2010PropOp28
 70
     1
102
RTVSPost2010Prop29
280
     1
102
RTVSPost2010PropOp29
 70
     1
102
RTVSPost2010Prop30
280
     1
102
RTVSPost2010PropOp30
 70
     1
102
RTVSPost2010Prop31
280
     0
102
RTVSPost2010PropOp31
 70
     1
102
RTVSPost2010Prop32
280
     0
102
RTVSPost2010PropOp32
 70
     1
102
RTVSPost2010Prop33
280
     0
102
RTVSPost2010PropOp33
 70
     1
102
RTVSPost2010Prop34
280
     0
102
RTVSPost2010PropOp34
 70
     1
102
RTVSPost2010Prop35
280
     0
102
RTVSPost2010PropOp35
 70
     1
102
RTVSPost2010Prop36
280
     0
102
RTVSPost2010PropOp36
 70
     1
102
RTVSPost2010Prop37
 90
       50
102
RTVSPost2010PropOp37
 70
     1
102
RTVSPost2010Prop38
140
0.0
102
RTVSPost2010PropOp38
 70
     1
102
RTVSPost2010Prop39
140
1.0
102
RTVSPost2010PropOp39
 70
     1
102
RTVSPost2010Prop40
 90
        0
102
RTVSPost2010PropOp40
 70
     1
102
RTVSPost2010Prop41ColorIndex
 90
       18
102
RTVSPost2010Prop41ColorRGB
 90
        0
102
RTVSPost2010PropOp41
 70
     1
102
RTVSPost2010Prop42
 90
       50
102
RTVSPost2010PropOp42
 70
     1
102
RTVSPost2010Prop43
 90
        3
102
RTVSPost2010PropOp43
 70
     1
102
RTVSPost2010Prop44ColorIndex
 90
        5
102
RTVSPost2010Prop44ColorRGB
 90
      255
102
RTVSPost2010PropOp44
 70
     1
102
RTVSPost2010Prop45
280
     0
102
RTVSPost2010PropOp45
 70
     1
102
RTVSPost2010Prop46
 90
       50
102
RTVSPost2010PropOp46
 70
     1
102
RTVSPost2010Prop47
 90
       50
102
RTVSPost2010PropOp47
 70
     1
102
RTVSPost2010Prop48
 90
       50
102
RTVSPost2010PropOp48
 70
     1
102
RTVSPost2010Prop49
280
     0
102
RTVSPost2010PropOp49
 70
     1
102
RTVSPost2010Prop50
 90
       50
102
RTVSPost2010PropOp50
 70
     1
102
RTVSPost2010Prop51ColorIndex
 90
      256
102
RTVSPost2010Prop51ColorRGB
 90
-16777216
102
RTVSPost2010PropOp51
 70
     0
102
RTVSPost2010Prop52
140
1.0
102
RTVSPost2010PropOp52
 70
     0
102
RTVSPost2010Prop53
 90
        2
102
RTVSPost2010PropOp53
 70
     1
102
RTVSPost2010Prop54
  1
strokes_ogs.tif
102
RTVSPost2010PropOp54
 70
     1
102
RTVSPost2010Prop55
280
     0
102
RTVSPost2010PropOp55
 70
     1
102
RTVSPost2010Prop56
140
1.0
102
RTVSPost2010PropOp56
 70
     1
102
RTVSPost2010Prop57
140
1.0
102
RTVSPost2010PropOp57
 70
     1
  0
XRECORD
  5
161
102
{ACAD_REACTORS
330
160
102
}
330
160
100
AcDbXrecord
280
     1
102
RTVSPropertyOp0
 70
     1
102
RTVSPropertyOp1
 70
     1
102
RTVSPropertyOp2
 70
     1
102
RTVSPropertyOp3
 70
     1
102
RTVSPropertyOp4
 70
     1
102
RTVSPropertyOp5
 70
     1
102
RTVSPropertyOp6
 70
     1
102
RTVSPropertyOp7
 70
     1
102
RTVSPropertyOp8
 70
     1
102
RTVSPropertyOp9
 70
     1
102
RTVSPropertyOp10
 70
     1
102
RTVSPropertyOp11
 70
     1
102
RTVSPropertyOp12
 70
     1
102
RTVSPropertyOp13
 70
     1
102
RTVSPropertyOp14
 70
     1
102
RTVSPropertyOp15
 70
     1
102
RTVSPropertyOp16
 70
     1
102
RTVSPropertyOp17
 70
     1
102
RTVSPropertyOp18
 70
     1
102
RTVSPropertyOp19
 70
     1
102
RTVSPropertyOp20
 70
     1
102
RTVSPropertyOp21
 70
     1
102
RTVSPropertyOp22
 70
     1
102
RTVSPropertyOp23
 70
     1
102
RTVSPropertyOp24
 70
     1
102
RTVSPropertyOp25
 70
     1
102
RTVSPropertyOp26
 70
     1
102
RTVSPropertyOp27
 70
     1
102
RTVSPropertyOp28
 70
     1
102
RTVSPropertyOp29
 70
     1
102
RTVSPropertyOp30
 70
     1
102
RTVSPropertyOp31
 70
     1
102
RTVSPropertyOp32
 70
     1
102
RTVSPropertyOp33
 70
     1
102
RTVSPropertyOp34
 70
     1
102
RTVSPropertyOp35
 70
     1
102
RTVSPropertyOp36
 70
     1
102
RTVSPropertyOp37
 70
     1
102
RTVSPropertyOp38
 70
     1
102
RTVSPropertyOp39
 70
     1
102
RTVSPropertyOp40
 70
     1
102
RTVSPropertyOp41
 70
     1
102
RTVSPropertyOp42
 70
     1
102
RTVSPropertyOp43
 70
     1
102
RTVSPropertyOp44
 70
     1
102
RTVSPropertyOp45
 70
     1
102
RTVSPropertyOp46
 70
     1
102
RTVSPropertyOp47
 70
     1
102
RTVSPropertyOp48
 70
     1
102
RTVSPropertyOp49
 70
     1
102
RTVSPropertyOp50
 70
     1
102
RTVSPropertyOp51
 70
     0
102
RTVSPropertyOp52
 70
     0
102
RTVSPropertyOp53
 70
     1
102
RTVSPropertyOp54
 70
     1
102
RTVSPropertyOp55
 70
     1
102
RTVSPropertyOp56
 70
     1
102
RTVSPropertyOp57
 70
     1
102
RTVSPost2010Prop28
280
     0
102
RTVSPost2010PropOp28
 70
     1
102
RTVSPost2010Prop29
280
     1
102
RTVSPost2010PropOp29
 70
     1
102
RTVSPost2010Prop30
280
     1
102
RTVSPost2010PropOp30
 70
     1
102
RTVSPost2010Prop31
280
     0
102
RTVSPost2010PropOp31
 70
     1
102
RTVSPost2010Prop32
280
     0
102
RTVSPost2010PropOp32
 70
     1
102
RTVSPost2010Prop33
280
     0
102
RTVSPost2010PropOp33
 70
     1
102
RTVSPost2010Prop34
280
     0
102
RTVSPost2010PropOp34
 70
     1
102
RTVSPost2010Prop35
280
     0
102
RTVSPost2010PropOp35
 70
     1
102
RTVSPost2010Prop36
280
     0
102
RTVSPost2010PropOp36
 70
     1
102
RTVSPost2010Prop37
 90
       50
102
RTVSPost2010PropOp37
 70
     1
102
RTVSPost2010Prop38
140
0.0
102
RTVSPost2010PropOp38
 70
     1
102
RTVSPost2010Prop39
140
1.0
102
RTVSPost2010PropOp39
 70
     1
102
RTVSPost2010Prop40
 90
        0
102
RTVSPost2010PropOp40
 70
     1
102
RTVSPost2010Prop41ColorIndex
 90
       18
102
RTVSPost2010Prop41ColorRGB
 90
        0
102
RTVSPost2010PropOp41
 70
     1
102
RTVSPost2010Prop42
 90
       50
102
RTVSPost2010PropOp42
 70
     1
102
RTVSPost2010Prop43
 90
        3
102
RTVSPost2010PropOp43
 70
     1
102
RTVSPost2010Prop44ColorIndex
 90
        5
102
RTVSPost2010Prop44ColorRGB
 90
      255
102
RTVSPost2010PropOp44
 70
     1
102
RTVSPost2010Prop45
280
     0
102
RTVSPost2010PropOp45
 70
     1
102
RTVSPost2010Prop46
 90
       50
102
RTVSPost2010PropOp46
 70
     1
102
RTVSPost2010Prop47
 90
       50
102
RTVSPost2010PropOp47
 70
     1
102
RTVSPost2010Prop48
 90
       50
102
RTVSPost2010PropOp48
 70
     1
102
RTVSPost2010Prop49
280
     0
102
RTVSPost2010PropOp49
 70
     1
102
RTVSPost2010Prop50
 90
       50
102
RTVSPost2010PropOp50
 70
     1
102
RTVSPost2010Prop51ColorIndex
 90
      256
102
RTVSPost2010Prop51ColorRGB
 90
-16777216
102
RTVSPost2010PropOp51
 70
     0
102
RTVSPost2010Prop52
140
1.0
102
RTVSPost2010PropOp52
 70
     0
102
RTVSPost2010Prop53
 90
        2
102
RTVSPost2010PropOp53
 70
     1
102
RTVSPost2010Prop54
  1
strokes_ogs.tif
102
RTVSPost2010PropOp54
 70
     1
102
RTVSPost2010Prop55
280
     0
102
RTVSPost2010PropOp55
 70
     1
102
RTVSPost2010Prop56
140
1.0
102
RTVSPost2010PropOp56
 70
     1
102
RTVSPost2010Prop57
140
1.0
102
RTVSPost2010PropOp57
 70
     1
  0
ENDSEC
  0
EOF
